» » »

Floods Tabs (ver.1)

Artists:  A B C D E F G H I J K L M N O P Q R S T U V W X Y Z # 

Floods Tabs (ver.1)

Breed 77
Rating:
0/5 (0 votes)

Hard to play? Try these video lessons and learn fast.
                Key:    x - Mute String
        b - Bend
       Pm - Palm Muted
       () - Harmonic
        h - Hammer-On
Tuning: Drop d



Intro/ Verse
|-----------------------------------------|
|-----------------------------------------|
|-----------------------------------------| Some kind of wierd 
|-----------------------------------------| wah wah echo effect
|-----------------------------------------|
|-0---3----0---3---0---3----0-------------|

Chorus     01:02
|----------------------------------------------------|
|----------------------------------------------------|
|----------------------------------------------------|
|-7-7-7-7-7-7--6-6-6-6-6-6---0-0-0-0--0-0-0-0--0-0-0-|
|-5-5-5-5-5-5--5-5-5-5-5-5---0-0-0-0--0-0-0-0--0-0-0-|
|-0-0-0-0-0-0--0-0-0-0-0-0---0-0-0-0--0-0-0-0--0-0-0-|
Pm                           . . .    . . .    . . 

Bridge  02:30                               02:49
|---------------------------------------|-------------|
|---------------------------------------|-------------|
|---------------------------------------|-------------|
|-3-3-3--7-7-7--/-12--0--3-3--/-5-5-5---|---7---------|
|-3-3-3--7-7-7--/-12--0--3-3--/-5-5-5---|---7---------|
|-3-3-3--7-7-7--/-12--0--3-3--/-5-5-5---|---7---------|

Interlude    03:05
|------------------------------------------------------|
|------------------------------------------------------|
|------------------------------------------------------|
|--5-7--5-7--5-7--5-7--5-7--5-6--5-6--5-6--5-6--5-6----|
|-5----5----5----5----5----5----5----5----5----5-------|
|------------------------------------------------------|

Outro
|-----------------------------|
|-----------------------------|
|-----------------------------|
|---5b---5b---5b---5b---5b----|
|-0----0----0----0----0-------|
|-0----0----0----0----0-------|........
Pm.    .    .    .    .
            
Hard to play? Try these video lessons and learn fast. | Correct




comments powered by Disqus
↑ Back to top | Tablatures and chords are parodies/interpretations of the original songs. You may use it for private study, scholarship, research or language learning purposes only