» » »

Breaking Benjamin, You Tabs (ver.1)

Artists:  A B C D E F G H I J K L M N O P Q R S T U V W X Y Z # 

You Tabs (ver.1)

Breaking Benjamin Tabs
 Rating:
4/5 (4 votes)
You lessons Tabs too difficult? Try these video lessons and learn fast
                Breaking Benjamin
Tuning Standard

Legend
x-scratch
p-pull off
(#)-optional
pm-palm mute
/-slide up

Intro Guitar 1 Clean (Aaron) *play once*
e|----------------------------------------------------------------|
B|------7----7--------7----7---------7-----7---------7-----7------|
G|----------------------------------------------------------------|
D|----9----9----9---9----9----9----9-----9-----9---9-----9-----9--|
A|--7----7----7---7----7----7-------------------------------------|
E|-------------------------------8-----8-----8---8-----8-----8----|

Verse 1 Guitar 1 Clean (Aaron) *play 3 times*
e|----------------------------------------------------------------|
B|------7----7--------7----7---------7-----7---------7-----7------|
G|----------------------------------------------------------------|
D|----9----9----9---9----9----9----9-----9-----9---9-----9-----9--|
A|--7----7----7---7----7----7-------------------------------------|
E|-------------------------------8-----8-----8---8-----8-----8----|

Verse 1 Guitar 1 Cont. Clean *play once*
e|----------------------------------------------------------------|
B|------7----7--------7----7---------7-----7----------------------|
G|----------------------------------------------------------------|
D|----9----9----9---9----9----9----9-----9-----9------------------|
A|--7----7----7---7----7----7-------------------------------------|
E|-------------------------------8-----8-----8---8-8-8-8-8-8-8-8--|

Chorus 1 Guitar 1 Distorted (Aaron)
e|--------------------------------------|
B|--6666666666666666--55555555--333333--|
G|--------------------------------------|
D|--------------------------------------|
A|--------------------------------------|
E|--------------------------------------|

Chorus 1 Guitar 2 Distorted (Ben)
e|--------------------------------------|
B|--------------------------------------|
G|--------------------5-555-55----------|
D|--3-333-33-33-3333--5-555-55--5-5-x5--|
A|--3-333-33-33-3333--3-333-33--5-5-x5--|
E|--1-111-11-11-1111--3-333-33--3-3-x3--|

Guitar 1 Cont.
e|--------------------------------------|
B|--6666666666666666--55555555--333333--|
G|--------------------------------------|
D|--------------------------------------|
A|--------------------------------------|
E|--------------------------------------|

Guitar 2 Cont.
e|--------------------------------------|
B|--------------------------------------|
G|--------------------5-555-55----------|
D|--3-333-33-33-3333--5-555-55--55-555--|
A|--3-333-33-33-3333--3-333-33--55-555--|
E|--1-111-11-11-1111--3-333-33--33-333--|

Guitar 1 Cont.
e|--5555555555555555p3----------------------4----|
B|--------------------55555555--333333--6---6----|
G|------------------------------------------5----|
D|------------------------------------------3----|
A|------------------------------------------3----|
E|-----------------------------------------------|

Guitar 2 Cont.
e|-----------------------------------------------|
B|-----------------------------------------(9)---|
G|--------------------5-555-55-------------(10)--|
D|--3-333-33-33-3333--5-555-55--55-555--3--(10)--|
A|--3-333-33-33-3333--3-333-33--55-555--3--(8)---|
E|--1-111-11-11-1111--3-333-33--33-333—-1--(8)---|

Chorus 2 Guitar 1 Distorted with effects (Aaron)
e|----------------------------------------------------------------------|
B|--17171717--------17171717-----------------17171717-19191919----------|
G|----------16161616--------16161616-17171717-----------------17171717--|
D|----------------------------------------------------------------------|
A|----------------------------------------------------------------------|
E|----------------------------------------------------------------------|

Chorus 2 Guitar 2 Distorted (Ben)
e|----------------------------------------------------------------------|
B|----------------------------------------------------------------------|
G|--9-9-9-9-9-9-9-9-9-9-9-9-9-9-9-9--5-5-5-5-5-5-5-5--5-5-5-5-5-5-5-5---|
D|--9-9-9-9-9-9-9-9-9-9-9-9-9-9-9-9--5-5-5-5-5-5-5-5--5-5-5-5-5-5-5-5---|
A|--7-7-7-7-7-7-7-7-7-7-7-7-7-7-7-7--3-3-3-3-3-3-3-3--3-3-3-3-3-3-3-3---|
E|--7-7-7-7-7-7-7-7-7-7-7-7-7-7-7-7--3-3-3-3-3-3-3-3--3-3-3-3-3-3-3-3---|

Guitar 1 Cont.
e|-------------------------------------------------------------------------|
B|--17171717--------17171717-----------------17171717-19191919---------17--|
G|----------16161616--------17171717-16161616-----------------19191919-----|
D|-------------------------------------------------------------------------|
A|-------------------------------------------------------------------------|
E|-------------------------------------------------------------------------|
                                     Let ring into verse 2-------------^ 
Guitar 2 Cont.
e|-------------------------------------------------------------------------|
B|-------------------------------------------------------------------------|
G|--9-9-9-9-9-9-9-9-9-9-9-9-9-9-9-9--5-5-5-5-5-5-5-5--5-5-5-5-5-5-5-5------|
D|--9-9-9-9-9-9-9-9-9-9-9-9-9-9-9-9--5-5-5-5-5-5-5-5--5-5-5-5-5-5-5-5------|
A|--7-7-7-7-7-7-7-7-7-7-7-7-7-7-7-7--3-3-3-3-3-3-3-3--3-3-3-3-3-3-3-3------|
E|--7-7-7-7-7-7-7-7-7-7-7-7-7-7-7-7--3-3-3-3-3-3-3-3--3-3-3-3-3-3-3-3------|

Verse 2 Guitar 2 Distorted (Ben)
e|------------------------------------------------------------------|
B|------7----7---------7----7----------7-----7---------7-----7------|
G|------------------------------------------------------------------|
D|----9----9-----9---9----9-----9----9-----9-----9---9-----9-----9--|
A|--7----7-----7---7----7-----7-------------------------------------|
E|---------------------------------8-----8-----8---8-----8-----8----|
   pmpm  pmpm  pm  pmpm pmpm  pm   pmpm  pmpm  pm  pmpm  pmpm  pm 

Guitar 2 Cont.
e|-----------------------------------------------------------------|
B|------7----7---------7----7----------7-----7---------7----7h8-7--|
G|-----------------------------------------------------------------|
D|----9----9-----9---9----9-----9----9-----9-----9---9----9--------|
A|--7----7-----7---7----7-----7------------------------------------|
E|---------------------------------8-----8-----8---8---------------|
   pmpm  pmpm  pm  pmpm pmpm  pm   pmpm  pmpm  pm  pmpm   pm

Guitar 2 Cont.
e|-----------------------------------------------------------------|
B|------7----7---------7----7----------7-----7---------7-----7-----|
G|-----------------------------------------------------------------|
D|----9----9-----9---9----9-----9----9-----9-----9---9-----9----9--|
A|--7----7-----7---7----7-----7------------------------------------|
E|---------------------------------8-----8-----8---8-----8----8----|
    pmpm  pmpm pm  pmpm pmpm  pm   pmpm  pmpm  pm  pmpm  pmpm pm 

Verse 2 Guitar 2 Cont. *play once*
e|-----------------------------------------------------------------|
B|------7----7---------7----7---------7----7-----------------------|
G|-----------------------------------------------------------------|
D|----9----9-----9---9----9-----9---9----9-----9-------------------|
A|--7----7-----7---7----7-----7------------------------------------|
E|--------------------------------8----8-----8----8-8-8-8-8-8-8-8--|
   pmpm  pmpm  pm  pmpm pmpm pm   pmpm  pmpm  pm

Chorus 3 Guitar 1 Distorted (Aaron)
e|--5555555555555555--33333333--777777--|
B|--------------------------------------|
G|--------------------------------------|
D|--------------------------------------|
A|--------------------------------------|
E|--------------------------------------|

Chorus 3 Guitar 2 Distorted (Ben)
e|--------------------------------------|
B|--------------------------------------|
G|--------------------5-555-55----------|
D|--3-333-33-33-3333--5-555-55--5-5-x5--|
A|--3-333-33-33-3333--3-333-33--5-5-x5--|
E|--1-111-11-11-1111--3-333-33--3-3-x3--|

Guitar 3 Cont.
e|--555555555555p333--88888888--777777--|
B|--------------------------------------|
G|--------------------------------------|
D|--------------------------------------|
A|--------------------------------------|
E|--------------------------------------|

Guitar 3 Cont.
e|--------------------------------------|
B|--------------------------------------|
G|--------------------5-555-55----------|
D|--3-333-33-33-3333--5-555-55--55-555--|
A|--3-333-33-33-3333--3-333-33--55-555--|
E|--1-111-11-11-1111--3-333-33--33-333--|

Guitar 3 Cont.
e|--8888888888888888—-12121212121212/13-1010101010101010--8--------|
B|------------------------------------------------------------9----|
G|------------------------------------------------------------10---|
D|------------------------------------------------------------10---|
A|------------------------------------------------------------8----|
E|------------------------------------------------------------8----|

Guitar 3 Cont.
e|-----------------------------------------------------------------|
B|-----------------------------------------------------------(9)---|
G|---------------------5---5-5-5---5-5-----------------------(10)--|
D|--3-333-33-33-3333---5---5-5-5---5-5---5--5---5--5---5--3--(10)--|
A|--3-333-33-33-3333---3---3-3-3---3-3---5--5---5--5---5--3--(8)---|
E|--1-111-11-11-1111---3---3-3-3---3-3---3--3---3--3---3--1--(8)---|

Chorus 4 Guitar 1 Distorted with effects (Aaron)
e|-----------------------------------------------1919----------------------|
B|---------------------------------------------------1919------------------|
G|-------------------------------------------------------1919191919191919--|
D|-------------------------------------------------------------------------|
A|-------------------------------------------------------------------------|
E|-------------------------------------------------------------------------|

Chorus 4 Guitar 2 Distorted (Ben)
e|-------------------------------------------------------------------------|
B|-------------------------------------------------------------------------|
G|-------------------------------------------------------------------------|
D|--9--------------5--------------9--------------5-------------------------|
A|--7777777777777773333333333333337777777777777773-3333333-3-3-3--3--------|
E|--7--------------3--------------7--------------3-------------------------|

Chorus 2 Guitar 1 Distorted with effects (Aaron)
e|----------------------------------------------------------------------|
B|--17171717--------17171717-----------------17171717-19191919----------|
G|----------16161616--------16161616-17171717-----------------17171717--|
D|----------------------------------------------------------------------|
A|----------------------------------------------------------------------|
E|----------------------------------------------------------------------|

Chorus 2 Guitar 2 Distorted (Ben)
e|----------------------------------------------------------------------|
B|----------------------------------------------------------------------|
G|--9-9-9-9-9-9-9-9-9-9-9-9-9-9-9-9--5-5-5-5-5-5-5-5--5-5-5-5-5-5-5-5---|
D|--9-9-9-9-9-9-9-9-9-9-9-9-9-9-9-9--5-5-5-5-5-5-5-5--5-5-5-5-5-5-5-5---|
A|--7-7-7-7-7-7-7-7-7-7-7-7-7-7-7-7--3-3-3-3-3-3-3-3--3-3-3-3-3-3-3-3---|
E|--7-7-7-7-7-7-7-7-7-7-7-7-7-7-7-7--3-3-3-3-3-3-3-3--3-3-3-3-3-3-3-3---|

Guitar 1 Cont.
e|----------------------------------------------------------------------|
B|--17171717--------17171717-----------------17171717-19191919----------|
G|----------16161616--------17171717-16161616-----------------19191919--|
D|----------------------------------------------------------------------|
A|----------------------------------------------------------------------|
E|----------------------------------------------------------------------|

Guitar 2 Cont.
e|----------------------------------------------------------------------|
B|----------------------------------------------------------------------|
G|--9-9-9-9-9-9-9-9-9-9-9-9-9-9-9-9--5-5-5-5-5-5-5-5--5-5-5-5-5-5-5-5---|
D|--9-9-9-9-9-9-9-9-9-9-9-9-9-9-9-9--5-5-5-5-5-5-5-5--5-5-5-5-5-5-5-5---|
A|--7-7-7-7-7-7-7-7-7-7-7-7-7-7-7-7--3-3-3-3-3-3-3-3--3-3-3-3-3-3-3-3---|
E|--7-7-7-7-7-7-7-7-7-7-7-7-7-7-7-7--3-3-3-3-3-3-3-3--3-3-3-3-3-3-3-3---|

Guitar 1 Cont.
e|----------------------------------------------------------------------|
B|--17171717--------17171717-----------------17171717-19191919----------|
G|----------16161616--------16161616-17171717-----------------17171717--|
D|----------------------------------------------------------------------|
A|----------------------------------------------------------------------|
E|----------------------------------------------------------------------|

Guitar 2 Cont.
e|----------------------------------------------------------------------|
B|----------------------------------------------------------------------|
G|--9-9-9-9-9-9-9-9-9-9-9-9-9-9-9-9--5-5-5-5-5-5-5-5--5-5-5-5-5-5-5-5---|
D|--9-9-9-9-9-9-9-9-9-9-9-9-9-9-9-9--5-5-5-5-5-5-5-5--5-5-5-5-5-5-5-5---|
A|--7-7-7-7-7-7-7-7-7-7-7-7-7-7-7-7--3-3-3-3-3-3-3-3--3-3-3-3-3-3-3-3---|
E|--7-7-7-7-7-7-7-7-7-7-7-7-7-7-7-7--3-3-3-3-3-3-3-3--3-3-3-3-3-3-3-3---|

Guitar 1 Cont.
e|--------------------------------------|
B|--17171717--------17171717--17-19-20--|
G|----------16161616--------16----------|
D|--------------------------------------|
A|--------------------------------------|
E|--------------------------------------|

Guitar 2 Cont.
e|--------------------------------------|
B|--------------------------------------|
G|--9-9-9-9-9-9-9-9-9-9-9-9-9-9-9-9--5--|
D|--9-9-9-9-9-9-9-9-9-9-9-9-9-9-9-9--5--|
A|--7-7-7-7-7-7-7-7-7-7-7-7-7-7-7-7--3--|
E|--7-7-7-7-7-7-7-7-7-7-7-7-7-7-7-7--3--|

Finished
            
Submit corrections

comments powered by Disqus
↑ Back to top | Breaking Benjamin Tabs for You. Lyrics for acoustic guitar and electric guitar. Tablatures and chords are parodies/interpretations of the original songs. You may use it for private study, scholarship, research or language learning purposes only