>
 >
Wish I May 4

Wish I May 4 Guitar Tabs

Breaking Benjamin - Wish I May 4 chords, tabs, tablatures, lyrics

Guitar lessons | Add/correct | Request | Top 50 tabs Artists:  A B C D E F G H I J K L M N O P Q R S T U V W X Y Z 0-9

Wish I May 4 Guitar Tabs – Breaking Benjamin

CD, Sheet music, Poster

Do you like Wish I May 4? Share with your friends now
Bass TabsBass Tabs v2Bass Tabs v3Drum TabsTabsTabs v2Tabs v3Tabs v4Tabs v5

Notation:
  h - hammer on 
  p - pull off 
  b - bend string up
  r - release bend
  / - slide up
  \ - slide down
  p.m. - palm muting
  a.h. - artificial harmonic

Tuning (low to high):  Db, Ab, Db, Gb, Bb, Eb


Intro     
       Guitar 1 (00:08)
Eb|-----------------------------|-----------------------------|
Bb|-----------------------------|-----------------------------|
Gb|-----------------------------|-----------------------------|
Dd|-0----0----0-----5\4---------|-0----0----0-----7/8\7-------|
Ad|-0----0----0-----------5/6---|-0----0----0-----------------|
Dd|-0----0----0-----------------|-0----0----0-----------------|

Eb|-----------------------------|-----------------------------|
Bb|-----------------------------|-----------------------------|
Gb|-----------------------------|-----------------------------|
Dd|-0----0----0-----5\4---------|-0----0----0-----5\3/5-------|
Ad|-0----0----0-----------5/6---|-0----0----0-----------------|
Dd|-0----0----0-----------------|-0----0----0-----------------|
       *play 2x

       Guitar 2 (00:08)
Eb|-----------------3\2---------|-----------------5/6/5-------|
Bb|-----------------------3/4---|-----------------------------|
Gb|-----------------------------|-----------------------------|
Dd|-0----0----0-----------------|-0----0----0-----------------|
Ad|-0----0----0-----------------|-0----0----0-----------------|
Dd|-0----0----0-----------------|-0----0----0-----------------|

Eb|-----------------3\2---------|-----------------------------|
Bb|-----------------------3/4---|-----------------3\1/3-------|
Gb|-----------------------------|-----------------------------|
Dd|-0----0----0-----------------|-0----0----0-----------------|
Ad|-0----0----0-----------------|-0----0----0-----------------|
Dd|-0----0----0-----------------|-0----0----0-----------------|
        *play 2x

       Guitar 1 & 2 (00:24)
Eb|-----------------------------|-----------------------------|
Bb|-----------------------------|--------------------------8\-|
Gb|-----------------------------|--------------------------8\-|
Dd|-0---0---0--0--0--0----------|-0---0---0--0--0--0--0----8\-|
Ad|-0---0---0--0--0--0----------|-0---0---0--0--0--0--0-------|
Dd|-0---0---0--0--0--0----------|-0---0---0--0--0--0--0-------|
       *w/ p.m.
Eb|-----------------------------|-----------------------------|
Bb|-----------------------------|-----------------------------|
Gb|-----------------------------|-------------------8--8--8\7-|
Dd|-0---0---0--0--0--0----------|-0---0---0--0--0---8--8--8\7-|
Ad|-0---0---0--0--0--0----------|-0---0---0--0--0---6--6--6\5-|
Dd|-0---0---0--0--0--0----------|-0---0---0--0--0-------------|

Verse  (00:32)  "Shove me under..."
       Guitar 1
Eb|-----------------------------|-----------------------------|
Bb|-----------------------------|-----------------------------|
Gb|-(7)-----------(7)-----------|-(7)-----------(7)-------8\7-|
Dd|-(7)-----------(7)-----------|-(7)-----------(7)-------8\7-|
Ad|-(5)-----------(5)-----------|-(5)-----------(5)-------6\5-|
Dd|-----------------------------|-----------------------------|
       *play 4x

       Guitar 2
Eb|-----------------------------|-----------------------------|
Bb|-----------------------------|-----------------------------|
Gb|-----------------------------|-----------------------------|
Dd|-0---0---0--0--0--0----------|-0---0---0--0--0--0--0-------|
Ad|-0---0---0--0--0--0----------|-0---0---0--0--0--0--0-------|
Dd|-0---0---0--0--0--0----------|-0---0---0--0--0--0--0-------|
       *w/ p.m. (play 4x)

Prechorus (00:48)  "Why should I..."
Eb|-----------------------------|-----------------------------|
Bb|-----------------------------|-----------------------------|
Gb|-----------------------------|-8-----8-----8-----8------8--|
Dd|-5-----5-----5-----5------5--|-8-----8-----8-----8------8--|
Ad|-5-----5-----5-----5------5--|-6-----6-----6-----6------6--|
Dd|-5-----5-----5-----5------5--|-----------------------------|
       *play 2x

Chorus (00:57)  "We left this..."
Eb|-----------------------------|-----------------------------|
Bb|------3-----------------3----|------3-----------------3----|
Gb|-3-------3-----------------3-|---------3-----------------3-|
Dd|-3---------------------------|-1---------------------------|
Ad|-1---------------------------|-1---------------------------|
Dd|-----------------------------|-1---------------------------|
       *play 2x

Eb|-----------------------------|-----------------------------|
Bb|------3-----------------3----|------3-----------------3----|
Gb|---------3-----------------3-|---------3-----------------3-|
Dd|-5---------------------------|-1---------------------------|
Ad|-3---------------------------|-1---------------------------|
Dd|-----------------------------|-1---------------------------|
       *play 2x

Back to Intro (01:13)

Bridge (02:19)
Eb|-----------------------------|-----------------------------|
Bb|-----------------------------|-----------------------------|
Gb|-----------------------------|-----------------------------|
Dd|-0--0--0--0--0--0-----7------|-0--0--0--0--0--0-----7--8---|
Ad|-0--0--0--0--0--0--------8---|-0--0--0--0--0--0------------|
Dd|-0--0--0--0--0--0------------|-0--0--0--0--0--0------------|
       *w/ p.m.
Eb|-----------------------------|-----------------------------|
Bb|-----------------------------|-----------------------------|
Gb|-----------------------------|-----------------------------|
Dd|-0--0--0--0--0--0-----7------|-1---1---1---1-----1---------|
Ad|-0--0--0--0--0--0--------8\--|-1---1---1---1-----1---------|
Dd|-0--0--0--0--0--0------------|-1---1---1---1-----1---------|
       *play 2x

Solo (02:27)
       Guitar 2
Eb|-----------------------------|-----------------------------|
Bb|-----------------------------|-----------------------------|
Gb|-----------------------------|-----------------------------|
Dd|-3h5-----(5)-----3---------0-|-5h7-----(7)------7b8----5p0-|
Ad|-----------------------------|-----------------------------|
Dd|-----------------------------|-----------------------------|

Eb|-----------------------------|-----------------------------|
Bb|-----------------------------|-----------------------------|
Gb|-----------------------------|-----------------------------|
Dd|-3h5-----(5)-----3-------0---|------------6p5---5\---------|
Ad|-----------------------------|-5---6---6-------------------|
Dd|-----------------------------|-----------------------------|
                                            *a.h. *a.h.
Eb|-----------------------------|-----------------------------|
Bb|-/11--------10---------------|-/8---------6----------------|
Gb|-----------------------------|-----------------------------|
Dd|-----------------------------|-----------------------------|
Ad|-----------------------------|-----------------------------|
Dd|-----------------------------|-----------------------------|

Eb|-----------------------------|-----------------------------|
Bb|-----------------------------|-----------------------------|
Gb|-/8--7-----------------5--7--|-7/8--7--5---7b8r7------(7)--|
Dd|-----------------------------|-----------------------------|
Ad|-----------------------------|-----------------------------|
Dd|-----------------------------|-----------------------------|

       Guitar 1 (02:27) *rhythm during solo*
Eb|-----------------------------|-----------------------------|
Bb|-----------------------------|-----------------------------|
Gb|-----------------------------|-----------------------------|
Dd|-5----5--5--5-----1----/8\---|-5----5--5--5-----1----/8\---|
Ad|-5----5--5--5-----1----/8\---|-5----5--5--5-----1----/8\---|
Dd|-5----5--5--5-----1----/8\---|-5----5--5--5-----1----/8\---|

Eb|-----------------------------|-----------------------------|
Bb|-----------------------------|-----------------------------|
Gb|-----------------------------|-----------------------------|
Dd|-5----5--5--5-----1----/8\---|-1----1----1----1-------1----|
Ad|-5----5--5--5-----1----/8\---|-1----1----1----1-------1----|
Dd|-5----5--5--5-----1----/8\---|-1----1----1----1-------1----|
       *play 2x

Chorus II (02:44)  "We left this..."
Eb|-----------------------------|-----------------------------|
Bb|------3-----------------3----|------3-----------------3----|
Gb|-3-------3-----------------3-|---------3-----------------3-|
Dd|-3---------------------------|-1---------------------------|
Ad|-1---------------------------|-1---------------------------|
Dd|-----------------------------|-1---------------------------|
       *play 2x

Eb|-----------------------------|-----------------------------|
Bb|------3-----------------3----|------3-----------------3----|
Gb|---------3-----------------3-|---------3-----------------3-|
Dd|-5---------------------------|-1---------------------------|
Ad|-3---------------------------|-1---------------------------|
Dd|-----------------------------|-1---------------------------|
       *play 2x

Eb|-----------------------------|-----------------------------|
Bb|------3-----------------3----|------3-----------------3----|
Gb|-3-------3-----------------3-|---------3-----------------3-|
Dd|-3---------------------------|-1---------------------------|
Ad|-1---------------------------|-1---------------------------|
Dd|-----------------------------|-1---------------------------|
       *play 2x

Eb|-5-----5-----5-------5----5--|-/6----6-----6-------6----6--|
Bb|-5-----5-----5-------5----5--|-/6----6-----6-------6----6--|
Gb|-2-----2-----2-------2----2--|-/3----3-----3-------3----3--|
Dd|-----------------------------|-----------------------------|
Ad|-----------------------------|-----------------------------|
Dd|-----------------------------|-----------------------------|
       *play 2x

    (03:16)
Eb|-----------------------------|-----------------------------|
Bb|-----------------------------|-----------------------------|
Gb|-----------------------------|-----------------------------|
Dd|-0----0----0-----5\4---------|-0----0----0-----7/8\7-------|
Ad|-0----0----0-----------5/6---|-0----0----0-----------------|
Dd|-0----0----0-----------------|-0----0----0-----------------|

Eb|-----------------------------|-----------------------------|
Bb|-----------------------------|-----------------------------|
Gb|-----------------------------|-----------------------------|
Dd|-0----0----0-----5\4---------|-0----0----0-----5\3/5-------|
Ad|-0----0----0-----------5/6---|-0----0----0-----------------|
Dd|-0----0----0-----------------|-0----0----0-----------------|
     
       Guitar 2 (00:08)
Eb|-----------------3\2---------|-----------------5/6/5-------|
Bb|-----------------------3/4---|-----------------------------|
Gb|-----------------------------|-----------------------------|
Dd|-0----0----0-----------------|-0----0----0-----------------|
Ad|-0----0----0-----------------|-0----0----0-----------------|
Dd|-0----0----0-----------------|-0----0----0-----------------|

Eb|-----------------3\2---------|-----------------------------|
Bb|-----------------------3/4---|-----------------3\1/3-------|
Gb|-----------------------------|-----------------------------|
Dd|-0----0----0-----------------|-0----0----0-----------------|
Ad|-0----0----0-----------------|-0----0----0-----------------|
Dd|-0----0----0-----------------|-0----0----0-----------------|

Outro (03:24)  "Blind eyes shine bright"
Eb|-----------------------------|-----------------------------|
Bb|-----------------------------|-----------------------------|
Gb|-----------------------------|-----------------------------|
Dd|-8-----8-----8-----8---------|-8-----8-----8-----8---------|
Ad|-6-----6-----6-----6---------|-6-----6-----6-----6---------|
Dd|-8-----8-----8-----8---------|-8-----8-----8-----8---------|

Eb|-----------------------------|-----------------------------|
Bb|-----------------------------|-----------------------------|
Gb|-----------------------------|-------------------8---8---8-|
Dd|-8-----8-----8-----8---------|-8-----8-----8-----8---8---8-|
Ad|-6-----6-----6-----6---------|-6-----6-----6-----6---6---6-|
Dd|-8-----8-----8-----8---------|-8-----8-----8---------------|

Eb|-----------------------------|
Bb|-----------------------------|
Gb|-----------------------------|
Dd|-0--------------(0)----------|
Ad|-0--------------(0)----------|
Dd|-0--------------(0)----------|
    *let ring until end

       Guitar 2 (03:33)
Eb|-----------------------------|-5-------------5-------------|
Bb|-----------------------------|-----------------------------|
Gb|-----------------------------|-----------------------------|
Dd|-0--------------(0)----------|-----------------------------|
Ad|-0--------------(0)----------|-----------------------------|
Dd|-0--------------(0)----------|-----------------------------|

Eb|-5---------5---------5-------|-6--------6--------3---------|
Bb|-----------------------------|-----------------------------|
Gb|-----------------------------|-----------------------------|
Dd|-----------------------------|-----------------------------|
Ad|-----------------------------|-----------------------------|
Dd|-----------------------------|-----------------------------|

Eb|-6---------5---------5-------|-5--------5--------6---------|
Bb|-----------------------------|-----------------------------|
Gb|-----------------------------|-----------------------------|
Dd|-----------------------------|-----------------------------|
Ad|-----------------------------|-----------------------------|
Dd|-----------------------------|-----------------------------|

Eb|-6---------3---------------6-|--------------------------5--|
Bb|-----------------------------|-----------------------------|
Gb|-----------------------------|-----------------------------|
Dd|-----------------------------|-----------------------------|
Ad|-----------------------------|-----------------------------|
Dd|-----------------------------|-----------------------------|

Eb|-------------(5)-------------|
Bb|-----------------------------|
Gb|-----------------------------|
Dd|-----------------------------|
Ad|-----------------------------|
Dd|-----------------------------|





Comments


Popular Breaking Benjamin tabs & chords
Always Bass Tabs
Follow Bass Tabs
Hopeless Bass Tabs
Polyamorous 2 Bass Tabs
Breath 4 Chords
Give Me A Sign 7 Chords
Lights Out Drum Tabs
Anthem Of The Angels 2 Tabs
Diary Of Jane 2 Tabs
Rain Tabs


Song lyrics



↑ Back to top | Tablatures and chords are parodies/interpretations of the original songs. You may use it for private study, scholarship, research or language learning purposes only
© 2014 AZChords.com Contact us | Privacy policy | DMCA | Add/correct tabs | Request tabs | Top 50 tabs