>
 >
Wish I May 1

Wish I May 1 Guitar Tabs

Breaking Benjamin - Wish I May 1 chords, tabs, tablatures, lyrics

Guitar lessons | Add/correct | Request | Top 50 tabs Artists:  A B C D E F G H I J K L M N O P Q R S T U V W X Y Z 0-9

Wish I May 1 Guitar Tabs – Breaking Benjamin

CD, Sheet music, Poster

Do you like Wish I May 1? Share with your friends now
Bass TabsBass Tabs v2Bass Tabs v3Drum TabsTabsTabs v2Tabs v3Tabs v4Tabs v5
Please rate this tab... Iím aware that B.B. uses 2 guitar players, but I found that, minus the solo 
section, you can do it w/ one guitar player, and it sounds just as good (well, almost :-P)

Tuning (low to high):  Db, Ab, Db, Gb, Bb, Eb

Intro     
Eb|-----------------------------|-----------------------------|
Bb|-----------------------------|-----------------------------|
Gb|-----------------------------|-----------------------------|
Dd|-0----0----0-----5\4---------|-0----0----0-----7/8\7-------|
Ad|-0----0----0-----------5/6---|-0----0----0-----------------|
Dd|-0----0----0-----------------|-0----0----0-----------------|

Eb|-----------------------------|-----------------------------|
Bb|-----------------------------|-----------------------------|
Gb|-----------------------------|-----------------------------|
Dd|-0----0----0-----5\4---------|-0----0----0-----5\3/5-------|
Ad|-0----0----0-----------5/6---|-0----0----0-----------------|
Dd|-0----0----0-----------------|-0----0----0-----------------|
       *play 2x

Eb|-----------------------------|-----------------------------|
Bb|-----------------------------|-----------------------------|
Gb|-----------------------------|-----------------------------|
Dd|-0---0---0--0--0--0----------|-0---0---0--0--0--0--0---15\-|
Ad|-0---0---0--0--0--0----------|-0---0---0--0--0--0--0---15\-|
Dd|-0---0---0--0--0--0----------|-0---0---0--0--0--0--0---15\-|
    ----*w/ p.m.---------------------------------------
Eb|-----------------------------|------------------------------|
Bb|-----------------------------|------------------------------|
Gb|-----------------------------|------------------------------|
Dd|-0---0---0--0--0--0----------|-0---0---0--0--0---13--13--13-|
Ad|-0---0---0--0--0--0----------|-0---0---0--0--0---13--13--13-|
Dd|-0---0---0--0--0--0----------|-0---0---0--0--0---13--13--13-|

Verse
Eb|-----------------------------|-----------------------------|
Bb|-----------------------------|-----------------------------|
Gb|-----------------------------|-----------------------------|
Dd|-0---0---0--0--0--0----------|-0---0---0--0--0--0--0-------|
Ad|-0---0---0--0--0--0----------|-0---0---0--0--0--0--0-------|
Dd|-0---0---0--0--0--0----------|-0---0---0--0--0--0--0-------|
       *w/ p.m. (play 4x)

Prechorus
Eb|-----------------------------|-----------------------------|
Bb|-----------------------------|-----------------------------|
Gb|-----------------------------|-----------------------------|
Dd|-5-----5-----5-----5------5--|-1-----1-----1-----1------1--|
Ad|-5-----5-----5-----5------5--|-1-----1-----1-----1------1--|
Dd|-5-----5-----5-----5------5--|-1-----1-----1-----1------1--|
       *play 2x

Chorus
Eb|-----------------------------|-----------------------------|
Bb|------3-----------------3----|------3-----------------3----|
Gb|-3-------3-----------------3-|---------3-----------------3-|
Dd|-3---------------------------|-1---------------------------|
Ad|-1---------------------------|-1---------------------------|
Dd|-----------------------------|-1---------------------------|
       *play 2x

Eb|-----------------------------|-----------------------------|
Bb|------3-----------------3----|------3-----------------3----|
Gb|---------3-----------------3-|---------3-----------------3-|
Dd|-5---------------------------|-1---------------------------|
Ad|-3---------------------------|-1---------------------------|
Dd|-----------------------------|-1---------------------------|
       *play 2x

Back to Intro

Bridge
Eb|-----------------------------|-----------------------------|
Bb|-----------------------------|-----------------------------|
Gb|-----------------------------|-----------------------------|
Dd|-5--5--5--5--5--5-----7------|-5--5--5--5--5--5-----7--8---|
Ad|-5--5--5--5--5--5--------8---|-5--5--5--5--5--5------------|
Dd|-5--5--5--5--5--5------------|-5--5--5--5--5--5------------|
       *w/ p.m.
Eb|-----------------------------|-----------------------------|
Bb|-----------------------------|-----------------------------|
Gb|-----------------------------|-----------------------------|
Dd|-5--5--5--5--5--5-----7------|-1---1---1---1-----1---------|
Ad|-5--5--5--5--5--5--------8\--|-1---1---1---1-----1---------|
Dd|-5--5--5--5--5--5------------|-1---1---1---1-----1---------|
       *play 2x

Solo
       Guitar 2
Eb|-----------------------------|-----------------------------|
Bb|-----------------------------|-----------------------------|
Gb|-----------------------------|-----------------------------|
Dd|-3h5-----(5)-----3---------0-|-5h7-----(7)------7b8----5p0-|
Ad|-----------------------------|-----------------------------|
Dd|-----------------------------|-----------------------------|

Eb|-----------------------------|-----------------------------|
Bb|-----------------------------|-----------------------------|
Gb|-----------------------------|-----------------------------|
Dd|-3h5-----(5)-----3-------0---|------------6p5---5\---------|
Ad|-----------------------------|-5---6---6-------------------|
Dd|-----------------------------|-----------------------------|
                                            *a.h. *a.h.
Eb|-----------------------------|-----------------------------|
Bb|-/11--------10---------------|-/8---------6----------------|
Gb|-----------------------------|-----------------------------|
Dd|-----------------------------|-----------------------------|
Ad|-----------------------------|-----------------------------|
Dd|-----------------------------|-----------------------------|

Eb|-----------------------------|-----------------------------|
Bb|-----------------------------|-----------------------------|
Gb|-/8--7-----------------5--7--|-7/8--7--5---7b8r7------(7)--|
Dd|-----------------------------|-----------------------------|
Ad|-----------------------------|-----------------------------|
Dd|-----------------------------|-----------------------------|

       Guitar 1 *rhythm during solo*
Eb|-----------------------------|-----------------------------|
Bb|-----------------------------|-----------------------------|
Gb|-----------------------------|-----------------------------|
Dd|-5----5--5--5-----1----/8\---|-5----5--5--5-----1----/8\---|
Ad|-5----5--5--5-----1----/8\---|-5----5--5--5-----1----/8\---|
Dd|-5----5--5--5-----1----/8\---|-5----5--5--5-----1----/8\---|

Eb|-----------------------------|-----------------------------|
Bb|-----------------------------|-----------------------------|
Gb|-----------------------------|-----------------------------|
Dd|-5----5--5--5-----1----/8\---|-1----1----1----1-------1----|
Ad|-5----5--5--5-----1----/8\---|-1----1----1----1-------1----|
Dd|-5----5--5--5-----1----/8\---|-1----1----1----1-------1----|
       *play 2x
Chorus II
Eb|-----------------------------|-----------------------------|
Bb|------3-----------------3----|------3-----------------3----|
Gb|-3-------3-----------------3-|---------3-----------------3-|
Dd|-3---------------------------|-1---------------------------|
Ad|-1---------------------------|-1---------------------------|
Dd|-----------------------------|-1---------------------------|
       *play 2x

Eb|-----------------------------|-----------------------------|
Bb|------3-----------------3----|------3-----------------3----|
Gb|---------3-----------------3-|---------3-----------------3-|
Dd|-5---------------------------|-1---------------------------|
Ad|-3---------------------------|-1---------------------------|
Dd|-----------------------------|-1---------------------------|
       *play 2x

Eb|-----------------------------|-----------------------------|
Bb|------3-----------------3----|------3-----------------3----|
Gb|-3-------3-----------------3-|---------3-----------------3-|
Dd|-3---------------------------|-1---------------------------|
Ad|-1---------------------------|-1---------------------------|
Dd|-----------------------------|-1---------------------------|
       *play 2x

Eb|-5-----5-----5-------5----5--|-/6----6-----6-------6----6--|
Bb|-5-----5-----5-------5----5--|-/6----6-----6-------6----6--|
Gb|-2-----2-----2-------2----2--|-/3----3-----3-------3----3--|
Dd|-----------------------------|-----------------------------|
Ad|-----------------------------|-----------------------------|
Dd|-----------------------------|-----------------------------|
       *play 2x

    
Eb|-----------------------------|-----------------------------|
Bb|-----------------------------|-----------------------------|
Gb|-----------------------------|-----------------------------|
Dd|-0----0----0-----5\4---------|-0----0----0-----7/8\7-------|
Ad|-0----0----0-----------5/6---|-0----0----0-----------------|
Dd|-0----0----0-----------------|-0----0----0-----------------|

Eb|-----------------------------|-----------------------------|
Bb|-----------------------------|-----------------------------|
Gb|-----------------------------|-----------------------------|
Dd|-0----0----0-----5\4---------|-0----0----0-----5\3/5-------|
Ad|-0----0----0-----------5/6---|-0----0----0-----------------|
Dd|-0----0----0-----------------|-0----0----0-----------------|     

Outro
Eb|-----------------------------|-----------------------------|
Bb|-----------------------------|-----------------------------|
Gb|-----------------------------|-----------------------------|
Dd|-1-----1-----1-----1---------|-1-----1-----1-----1---------|
Ad|-1-----1-----1-----1---------|-1-----1-----1-----1---------|
Dd|-1-----1-----1-----1---------|-1-----1-----1-----1---------|

Eb|-----------------------------|-----------------------------|
Bb|-----------------------------|-----------------------------|
Gb|-----------------------------|-------------------8---8---8-|
Dd|-1-----1-----1-----1---------|-1-----1-----1-----8---8---8-|
Ad|-1-----1-----1-----1---------|-1-----1-----1-----6---6---6-|
Dd|-1-----1-----1-----1---------|-1-----1-----1---------------|

Eb|-----------------------------|
Bb|-----------------------------|
Gb|-----------------------------|
Dd|-0--------------(0)----------|
Ad|-0--------------(0)----------|
Dd|-0--------------(0)----------|
    *let ring until end





Comments


Popular Breaking Benjamin tabs & chords
Topless Bass Tabs
Forever Chords
You Chords
Believe 1 Tabs
Give Me A Sign 4 Tabs
Had Enough 2 Tabs
Medicate 1 Tabs
Shallow Bay Tabs
You Intro Tabs
Medicate Ukulele


Song lyrics



↑ Back to top | Tablatures and chords are parodies/interpretations of the original songs. You may use it for private study, scholarship, research or language learning purposes only
© 2014 AZChords.com Contact us | Privacy policy | DMCA | Add/correct tabs | Request tabs | Top 50 tabs