>
 >
So Cold (Acoustic)

So Cold (Acoustic) Guitar Tabs

Breaking Benjamin - So Cold (Acoustic) chords, tabs, tablatures, lyrics

Guitar lessons | Add/correct | Request | Top 50 tabs Artists:  A B C D E F G H I J K L M N O P Q R S T U V W X Y Z 0-9

So Cold (Acoustic) Guitar Tabs – Breaking Benjamin

CD, Sheet music, Poster

Do you like So Cold (Acoustic)? Share with your friends now
Tabs

Tuning: CGCFAD (Drop D and one step down)

Intro (Ben)
D-------------------------------------------------|
A-------------------------------------------------|
F-------------------------------------------------|
C---------3-3-3-3-3-3-----------8--8--8--8--7-7---|
G---5---5-5-5-5-5-5-5---10---10-10-10-10-10-8-8---|
C-0---0---------------0----0----------------------|

Lead (Aaron)
D-------------------------------------------------------------------------|
A-15-15-15-10-10-10-10/13----------15-15-15-10-10-10-13-13-13-10-10-10-17-|
F-------------------------------------------------------------------------|
C-12-12-12-7--7--7--7-/10----------12-12-12-7--7--7--10-10-10-7--7--7--14-|
G-------------------------------------------------------------------------|
C-------------------------------------------------------------------------|

D-------------------------------------------------|
A-15-15-15-10-10-10-13-13-13-10-10-10-8-8---------|
F-------------------------------------------------|
C-12-12-12-7--7--7--10-10-10-7--7--7--5-5---------|
G-------------------------------------------------|
C-------------------------------------------------|

D-------------------------------------------------|
A-15-15-15-10-10-10-13-13-13-10-10-10-17-17-------|
F-------------------------------------------------|
C-12-12-12-7--7--7--10-10-10-7--7--7--14-14-------|
G-------------------------------------------------|
C-------------------------------------------------|

D-------------------------------------------------|
A-15-15-15-10-10-10-13-13-13-10-10-10-8-8---------|
F-------------------------------------------------|
C-12-12-12-7--7--7--10-10-10-7--7--7--5-5---------|
G-------------------------------------------------|
C-------------------------------------------------|

D-------------------------------------------------|
A-15-15-15-10-10-10-13-13-13-10-10-10-17----------|
F-------------------------------------------------|
C-12-12-12-7--7--7--10-10-10-7--7--7--14----------|
G-------------------------------------------------|
C-------------------------------------------------|

Intro/Verse

D-----1----0-0-0------1----3-3-3------------------|
A-----3----1-1-1------3----5-5-5------------------|
F-----2----0----------2---------------------------|
C-----0---------------0---------------------------|
G-0-0----0-------0-0-----0------------------------|
C-0-0------------0-0------------------------------|
you'll have to play along with the song to play these
chords in the same rhythm/number of times

Chorus

D---------------1------------------------1---------|
A-10------------3-----------10-----------3---------|
F-10------------2----5-5-5--10-----------2---5-5-5-|
C-8-------------0----5-5-5--8------------0---5-5-5-|
G-8-----0-0-0-0------3-3-3--8----0-0-0-0-----3-3-3-|
C-8-----0-0-0-0----0--------8----0-0-0-0---0-------|

D-------------------------------------------------|
A-10----------------------------------------------|
F-10----5/7-777/9-999/10-101010/12-1212-----------|
C-8-----x/--xxx/x-xxx/x--x-x-x-/x--x-x------------|
G-8-----3/5-555/7-777/8--8-8-8-/10-1010-----------|
C-8-----0-0-000-0-000-0--0-0-0--0--0-0------------|

D-------------------------------------------------|
A-10----------------------------------------------|
F-10----12----------------------------------------|
C-8-----10----------------------------------------|
G-8-----10----------------------------------------|
C-8-----10----------------------------------------|
once again, you'll have to play along to the song
to achieve the same rhythm pattern of these chords

Verse

Chorus

end chorus with this
D-------------------------------------------------|
A-10----------------------------------------------|
F-10----12----9-----------------------------------|
C-8-----10----7-----------------------------------|
G-8-----10----7-----------------------------------|
C-8-----10----7-----------------------------------|

Break

D-------------------------------------------------|
A-------------------------------------------------|
F-------------------------------------------------|
C-------------------------------------------------|
G-------5----------5--------5--------3------------|
C-0-3h5----0-3-5-6----0-3h5----6-5-6---6-5h6------|
Ben's part, played 4x

Aaron's Solo
D-------------------------------------------------|
A-------------------------------------------------|
F-7-7-7-7-7-7-7-7-7-777-7-7-7-7-7-7-7-7-7-7-7\5/7-|
C-x-x-x-x-x-x-x-x-x-xxx-x-x-x-x-x-x-x-x-x-x-x\x/x-|
G-5-5-5-5-5-5-5-5-5-555-5-5-5-5-5-5-5-5-5-5-5\3/5-|
C-------------------------------------------------|

D---------------------------------------------------------------------------------|
A---------------------------------------------------------------------------------|
F-9/10-10-10-10-10-10-10-10-9\10-1010-14-14-14-14-14-14-14-14-15-15-15-14-14-1010-|
C-x/x--x--x--x--x--x--x--x--x\x--x-x--x--x--x--x--x--x--x--x--x--x--x--x--x--x-x--|
G-7/8--8--8--8--8--8--8--8--7\8--8-8--12-12-12-12-12-12-12-12-13-13-13-12-12-8-8--|
C---------------------------------------------------------------------------------|

D--------------------------------------------------------------------------------|
A---15--15--15--15--15--15--15--15--15--15--15--15--15--15--15--15--15--15--15---|
F-17--17--17--17--17--17--17--17--16--16--16--16--16--16--16--15--15--15--15--15-|
C--------------------------------------------------------------------------------|
G--------------------------------------------------------------------------------|
C--------------------------------------------------------------------------------|

D--------------------------------------------------------------------------------|
A-15^-15-13---13-----------------------------------------------------------------|
F-----------14--14-12-14-12--12--------------------------------------------------|
C--------------------------15--15-12-15-12---12----------------------------------|
G------------------------------------------15--15-12-15-12-10-12-10--------------|
C------------------------------------------------------------------12------------|

Chorus

end chorus with this
D---------------------------------------------------|
A-10------------------------------------------------|
F-10----12----12------------------------------------|
C-8-----10----11------------------------------------|
G-8-----10----11------------------------------------|
C-8-----10----11------------------------------------|

Break 2

Ben
D--------------------------------------------------------------------------------|
A--------------------------------------------------------------------------------|
F--10---10---10----9-9--10---10---10----9-9--------------------------------------|
C-0--0-0--0-0--0-08-8--0--0-0--0-0--0-08-8---------------------------------------|
G--------------------------------------------------------------------------------|
C--------------------------------------------------------------------------------|
played 2x, then

Aaron
D-------------------------------------------------|
A---10---10--10--10--10--10----8-8----------------|
F-10--10---10--10--10--10--10-9-9-----------------|
C-------------------------------------------------|
G-------------------------------------------------|
C-------------------------------------------------|
played 2x

Outro

D-1--1-1-*--1--1-1--------------------------------|
A-3--3-3-*--3--3-3--------------------------------|
F-2--2-2-*--2--2-2--10-10-10-10-------------------|
C-0--0-0-*--0--0-0--8--8--8--8--------------------|
G-0--0-0-*--0--0-0--8--8--8--8--------------------|
C-0--0-0-*--0--0-0--8--8--8--8--------------------|
played 4x

D-1--1-1-1--1--1-1-1--------------------------------|
A-3--3-3-3--3--3-3-3--------------------------------|
F-2--2-2-2--2--2-2-2--10-10-10-10-------------------|
C-0--0-0-0--0--0-0-0--8--8--8--8--------------------|
G-0--0-0-0--0--0-0-0--8--8--8--8--------------------|
C-0--0-0-0--0--0-0-0--8--8--8--8--------------------|
played 4x

Aaron
D---------------------------------------------------|
A---------------------------------------------------|
F-7-7-7-1010109-9-9-10101012-12-12-12---------------|
C-x-x-x-x-x-x-x-x-x-x-x-x-x--x--x--x----------------|
G-5-5-5-8-8-8-7-7-7-8-8-8-10-10-10-10---------------|
C-0-0-0-0-0-0-0-0-0-0-0-0-0--0--0--0----------------|
played 3x

D---------------------------------------------------|
A-15-15-15-18-18-18-17------------------------------|
F-x--x--x--x--x--x--x-------------------------------|
C-12-12-12-15-15-15-14------------------------------|
G---------------------------------------------------|
C---------------------------------------------------|





Comments


Popular Breaking Benjamin tabs & chords
Phase Bass Tabs
Sooner Or Later 3 Bass Tabs
Forget It 1 Chords
Breakdown Drum Tabs
Away 2 Tabs
Away 3 Tabs
Here We Are 2 Tabs
Lights Out 3 Tabs
Polyamorous 3 Tabs
Unknown Soldier Tabs


Song lyrics



↑ Back to top | Tablatures and chords are parodies/interpretations of the original songs. You may use it for private study, scholarship, research or language learning purposes only
© 2014 AZChords.com Contact us | Privacy policy | DMCA | Add/correct tabs | Request tabs | Top 50 tabs