» » »

Breaking Benjamin, Simple Design Tabs (ver.2)

Artists:  A B C D E F G H I J K L M N O P Q R S T U V W X Y Z # 

Simple Design Tabs (ver.2)

Breaking Benjamin Tabs
Rating:
0/5 (0 votes)
Simple Design lessons Tabs too difficult? Try these video lessons and learn fast
                tuneing:Dropped Db (Db,Ab,Db,Gb,Bb.Eb)

/ = slide
h = hammer on
~ = let note ring
p = pull off


Intro                                             

e-------------------------------------            e-----------
b-------------------------------------            b-----------    
g-------------------------------------            g-----------      
d--10-9-7-5-0h3--0000~~~~0-00~~~~~~~~- Repeat 3 X d-0~-10~/5~-    
a--10-9-7-5-0h3--0000-3h50-00-3h5p3p0-   then     a-0~-10~/5~-   
d--10-9-7-5-0h3--0000~~~~0-00~~~~~~~~-            d-0~-10~/5~-  

lead line for the above:

e---------------
b---------------
g-9-7-9-7-5-7---
d-x-x-x-x-x-x---  don't play this EVERY time but pick out where you think its best
a-7-5-7-5-3-5---
d---------------


e------------------------------------             e---------------------
b------------------------------------             b---------------------
g----------------------------11h12~-- Repeat...   g---------------------
d-0-0-5/12-0~~~~~-0-0-5/12-0~~~~~~~-- play that   d---------------------
a-0-0-5/12-0-9999-0-0-5/12-0~~~~~~~-- than this   a-3h5~~3-3h5~~10-10h12
d-0-0-5/12-0~~~~~-0-0-5/12-0~~~~~~~--             d---------------------
*this part is used ALLOT in the song  

pre chorus

e----------              
b----------             
g----------
d-4-4-5~5--  Repeat 3X
a-2-4-5~5--
d---4-5~5--

Chorus
e-----------------------
b-----------------------
g-----------------------
d-0-0-7~7-7/4-4-5~5-5-5-  Repeat... then
a-0-0-7~7-7/4-4-5~5-5-5-
d-0-0-7~7-7/4-4-5~5-5-5-

e------------------------------------             
b------------------------------------             
g----------------------------11h12~--           
d-0-0-5/12-0~~~~~-0-0-5/12-0~~~~~~~-- 
a-0-0-5/12-0-9999-0-0-5/12-0~~~~~~~-- 
d-0-0-5/12-0~~~~~-0-0-5/12-0~~~~~~~--    

ENDING

e-------------------------------------
b-------------------------------------
g-------------------------------------
d-0-0-3-0-5-0-0-6-0-0-5-0-3/5-5/7-----  play pretty fast (3x) 
a-0-0-3-0-5-0-0-6-0-0-5-0-3/5-3/5-----
d-0-0-3-0-5-0-0-6-0-0-5-0-3/5--------- 
then...
e--------------------------------
b--------------------------------
g--------------------------------
d-0-12/0~-0-0-0------------------
a-0-12/0~-0-0-0------------------
d-0-12/0~-0-0-0------------------

enjoy
            

comments powered by Disqus
↑ Back to top | Breaking Benjamin Tabs for Simple Design. Lyrics for acoustic guitar and electric guitar. Tablatures and chords are parodies/interpretations of the original songs. You may use it for private study, scholarship, research or language learning purposes only