» » »

Breaking Benjamin, Simple Design Tabs (ver.1)

Artists:  A B C D E F G H I J K L M N O P Q R S T U V W X Y Z # 

Simple Design Tabs (ver.1)

Breaking Benjamin Tabs
 Rating:
4/5 (4 votes)
Simple Design lessons Tabs too difficult? Try these video lessons and learn fast
                Tuning: (as usual) Db Ab Db Gb Bb Eb


-----------------------------------------------|------------------------------
-----------------------------------------------|------------------------------
-----------------------------------------------|------------------------------
-10--9--7--5--0h3------------------------------|--0-/--7-/--10----------------
-10--9--7--5--0h3-----------3h5--------3h5-3p0-|--0-/--7-/--10----------------
-10--9--7--5--0h3---0-0-0--------0-0-0---------|--0-/--7-/--10----------------
 INTRO              . . .        . . .       3x    then this                  

-------------------------------|----------------------|-----------------------
-------------------------------|----------------------|-----------------------
-------------------------------|----------------------|-----------------------
-0--5/12--0--------------------|-0--5/12--0-----------|-12-10-12-10-12-10-12--
-0--5/12--0------9-------------|-0--5/12--0-------9br-|-12-10-12-10-12-10-12--
-0--5/12--0--0-0---------------|-0--5/12--0--0-0------|-12-10-12-10-12-10-12--
 VERSE       . . ^let ring! 3x    then this  . .       then this as needed    

----4-------------------------------------------------------------------------
----4--4--5--7----------------------------------------------------------------
----2--4--5--7----------------------------------------------------------------
-------4--5--7----------------------------------------------------------------
 PRECHORUS     4x                                                             

-------------------|-----------------|----------------------------------------
-------------------|-----------------|----------------------------------------
-------------------|-----------------|----------------------------------------
-0---7---4---5-----|--12--7---4---5--|--4--5--4--5----------------------------
-0---7---4---5-----|--12--7---4---5--|--4--5--4--5----------------------------
-0---7---4---5-----|--12--7---4---5--|--4--5--4--5----------------------------
 CHORUS  Guitar 1    CHORUS Guitar 2   Ending (both) First 2 chords then      

---------------------------------------|--------------------------------------
---------------------------------------|--------------------------------------
-----7---------------------7-----------|-7--11--14----------------------------
--0--x--3--5--6--3------0--x--3--6--5--|-x--x---x-----------------------------
--0--5--3--5--6--3------0--5--3--6--5--|-5--9---12--10--9--7--9--9br----------
--0-----3--5--6--3------0-----3--6--5--|--------------------------------------
 BRIDGE                            x4                                  x4     

-----------------------------------|------------------------------------------
-----------------------------------|------------------------------------------
-----------------------------------|------------------------------------------
-0--0--0----0--0--0----------------|------------------------------------------
-0--0--0----0--0--0----------------|-----5--3--0------------------------------
-0--0--0----0--0--0---0h3p0-3b-----|--0-----------5--3--0--3--5--0--3--5------
 ENDING                         x2                                            

------------|----------------------------|------------------------------------
------------|----------------------------|------------------------------------
------------|----------------------------|------------------------------------
------------|--0-/-7-/-12-------0--0--0--|------------------------------------
--0--3--5---|--0-/-7-/-12-------0--0--0--|------------------------------------
------------|--0-/-7-/-12-------0--0--0--|------------------------------------
 cont.   x3                                  That's it!                       


Any comments/questions/hate/love can be direct to my email!
            
Submit corrections

comments powered by Disqus
↑ Back to top | Breaking Benjamin Tabs for Simple Design. Lyrics for acoustic guitar and electric guitar. Tablatures and chords are parodies/interpretations of the original songs. You may use it for private study, scholarship, research or language learning purposes only