>
 >
Shallow Bay 2

Shallow Bay 2 Guitar Tabs

Breaking Benjamin - Shallow Bay 2 chords, tabs, tablatures, lyrics

Guitar lessons | Add/correct | Request | Top 50 tabs Artists:  A B C D E F G H I J K L M N O P Q R S T U V W X Y Z 0-9

Shallow Bay 2 Guitar Tabs – Breaking Benjamin

CD, Sheet music, Poster

Do you like Shallow Bay 2? Share with your friends now
Bass TabsDrum TabsTabsTabs v2Tabs v3
Breaking Benjamin - Shallow Bay
This is my first tab
The tab in parentheses are the acoustic guitar part in the background
p.m. = palm muting
h = hammer on
p = pull off


Intro  0:00
Eb-------------------------------------------------------------
Bb-------------------------------------------------------------
Gb-------------------------------------------------------------
Db---------------------------------------2-0-------------------
Ab---------------------------------------2-0-------------------
Db-2-5-2-0-2-2-2-2-2-2---2-5-2-0-2-2-2-2-2-0-------------------

Hard part with no lyrics  0:05
Eb-------------------------------------------------------------
Bb-------------------------------------------------------------
Gb-------------------------------------------------------------
Db-2-5-2-0-2-2-2-2-2-2---2-5-2-0-2-2-2-2-2-0-------------------
Ab-2-5-2-0-2-2-2-2-2-2---2-5-2-0-2-2-2-2-2-0-------------------
Db-2-5-2-0-2-2-2-2-2-2---2-5-2-0-2-2-2-2-2-0-------------------  x3


Verse pt.1  0:20

Eb------------------------------------------------------------
Bb------------------------------------------------------------
Gb------------------------------------------------------------
Db------------------------------------------------------------
Ab-----2-3-2-2-2-2-2-2-2--------2-3-2-2-2-2-2-0---------------
Db-2-5-------2-2-2-2-2-2----2-5-----2-2-2-2-2-0---------------  x2
p.m. . . . . . . . . . .    . . . . . . . . 

Verse pt.2  0:29

Eb------------------------------------------------------------
Bb------------------------------------------------------------
Gb------------------------------------------------------------
Db------------------------------------------------------------
Ab-----------------------------------------2-0----------------
Db-2-5-2-0-2-2-2-2-2-2-----2-5-2-0-2-2-2-2-2-0----------------  x2
p.m. . . . . . . . . .     . . . . . . . .

  Chorus  0:39   (parentheses are the acoustic guit. in background)

Eb-(3)-----------------------(3)-------------------------------
B--(5)-----------------------(5)-------------------------------
Gb-(5)-5--5555---------------(5)-5--5555-----------------------
Db-(5)-5--5555-5-55--2p0-2p0-(5)-5--5555-5-55--2p0-2p0---------
Ab-(3)-3--3333-5-55--2p0-2p0-(3)-3--3333-5-55--2p0-2p0---------
Db-------------5-55--2p0-2p0-------------5-55--2p0-2p0---------

      
                                   i dont  think you wanna...
Eb-(3)-----------------------(3)-------------------------------
Bb-(3)-----------------------(3)-------------------------------
Gb-(3)-5--5555---------------(3)---5-5555--4-4-4-4-4-4---------
Db-(3)-5--5555-5-55--2p0-2p0-(3)---5-5555--4-4-4-4-4-4---------
Ab-(3)-3--3333-5-55--2p0-2p0-(3)---3-3333--2-2-2-2-2-2---------
Db-------------5-55--2p0-2p0-----------------------------------

  Hard part with no lyrics 0:59

Eb-------------------------------------------------------------
Bb-------------------------------------------------------------
Gb-------------------------------------------------------------
Db-2-5-2-0-2-2-2-2-2-2---2-5-2-0-2-2-2-2-2-0-------------------
Ab-2-5-2-0-2-2-2-2-2-2---2-5-2-0-2-2-2-2-2-0-------------------
Db-2-5-2-0-2-2-2-2-2-2---2-5-2-0-2-2-2-2-2-0-------------------  x2

  Verse pt.1  1:09

Eb-------------------------------------------------------------
Bb-------------------------------------------------------------
Gb-------------------------------------------------------------
Db-------------------------------------------------------------
Ab-----2-3-2-2-2-2-2-2-2--------2-3-2-2-2-2-2-0----------------
Db-2-5-------2-2-2-2-2-2----2-5-----2-2-2-2-2-0----------------  x2
p.m. . . . . . . . . . .    . . . . . . . . 


  Verse pt.2 1:18

Eb-------------------------------------------------------------
Bb-------------------------------------------------------------
Gb-------------------------------------------------------------
Db-------------------------------------------------------------
Ab-----------------------------------------2-0-----------------
Db-2-5-2-0-2-2-2-2-2-2-----2-5-2-0-2-2-2-2-2-0-----------------  x2
p.m. . . . . . . . . .     . . . . . . . .


  Chorus 1:28

Eb-(3)-----------------------(3)-------------------------------
B--(5)-----------------------(5)-------------------------------
Gb-(5)-5--5555---------------(5)-5--5555-----------------------
Db-(5)-5--5555-5-55--2p0-2p0-(5)-5--5555-5-55--2p0-2p0---------
Ab-(3)-3--3333-5-55--2p0-2p0-(3)-3--3333-5-55--2p0-2p0---------
Db-------------5-55--2p0-2p0-------------5-55--2p0-2p0---------




Eb-(3)-----------------------(3)-------------------------------
B--(5)-----------------------(5)-------------------------------
Gb-(5)-5--5555---------------(5)-5--5555-444444-5--5555-444444-
Db-(5)-5--5555-5-55--2p0-2p0-(5)-5--5555-444444-5--5555-444444-
Ab-(3)-3--3333-5-55--2p0-2p0-(3)-3--3333-222222-3--3333-222222-
Db-------------5-55--2p0-2p0-----------------------------------


  Clean Bridge (let it ring baby) 1:53

Eb--------1-------------1------------1-------------1-----------
Bb--------0-------------0------------0-------------0-  Delay  -
Gb--------0-------------0------------0-------------0-  Effect -
Db-2--0---2----0-2--0---2--0--2--0---2----0-2--0---2-----------
Ab-2--0---3----0-2--0---3--0--2--0---3----0-2--0---3-----------
Db-2--0--------0-2--0------0--2--0--------0-2--0---------------


   Back to the Chorus (distortion) 2:12
 
Eb-----(3)-----------------------(3)---------------------------
B------(5)-----------------------(5)---------------------------
Gb-----(5)-5--5555---------------(5)-5--5555-------------------
Db-2-0-(5)-5--5555-5-55--2p0-2p0-(5)-5--5555-5-55--2p0-2p0-----
Ab-2-0-(3)-3--3333-5-55--2p0-2p0-(3)-3--3333-5-55--2p0-2p0-----
Db-2-0-------------5-55--2p0-2p0-------------5-55--2p0-2p0-----

                                   i dont  think you wanna...
Eb-(3)-----------------------(3)-------------------------------
Bb-(3)-----------------------(3)-------------------------------
Gb-(3)-5--5555---------------(3)---5-5555--4-4-4-4-4-4---------
Db-(3)-5--5555-5-55--2p0-2p0-(3)---5-5555--4-4-4-4-4-4---------
Ab-(3)-3--3333-5-55--2p0-2p0-(3)---3-3333--2-2-2-2-2-2---------
Db-------------5-55--2p0-2p0-----------------------------------


Eb-(3)-----------------------(3)-------------------------------
B--(5)-----------------------(5)-------------------------------
Gb-(5)-5--5555---------------(5)-5--5555-----------------------
Db-(5)-5--5555-5-55--2p0-2p0-(5)-5--5555-5-55--2p0-2p0---------
Ab-(3)-3--3333-5-55--2p0-2p0-(3)-3--3333-5-55--2p0-2p0---------
Db-------------5-55--2p0-2p0-------------5-55--2p0-2p0---------


Eb-(3)-----------------------(3)-------------------------------
B--(5)-----------------------(5)-------------------------------
Gb-(5)-5--5555---------------(5)-5--5555-444444-5--5555-444444-
Db-(5)-5--5555-5-55--2p0-2p0-(5)-5--5555-444444-5--5555-444444-
Ab-(3)-3--3333-5-55--2p0-2p0-(3)-3--3333-222222-3--3333-222222-
Db-------------5-55--2p0-2p0-----------------------------------


  Outro  2:56 - 3:34   (repeat)


Eb-------------------------------------------------------------
Bb-------------------------------------------------------------
Gb-------------------------------------------------------------
Db-------7h9--9p7------------7h9--9-7--------------------------
Ab--7h10----------10----7h10-----------------------------------
Db-------------------10----------------------------------------





Comments


Popular Breaking Benjamin tabs & chords
Breakdown Bass Tabs
Dance With The Devil Bass Tabs
Lights Out Bass Tabs
Lie To Me 1 Chords
Rain 1 Chords
Shallow Bay Drum Tabs
Always 3 Tabs
Breath Tabs
Topless Intro Tabs
Wish I May 3 Tabs


Song lyrics



↑ Back to top | Tablatures and chords are parodies/interpretations of the original songs. You may use it for private study, scholarship, research or language learning purposes only
© 2014 AZChords.com Contact us | Privacy policy | DMCA | Add/correct tabs | Request tabs | Top 50 tabs