» » »

Polyamous Ez 2 Tune Bass tabs (ver.1)

Artists:  A B C D E F G H I J K L M N O P Q R S T U V W X Y Z # 

Polyamous Ez 2 Tune Bass tabs (ver.1)

Breaking Benjamin
Rating:
0/5 (0 votes)

Hard to play? Try these video lessons and learn fast.
                Intro
g|----------------------------------------------------------------------------------
d|----------------------------------------------------------------------------------
a|-11-44-------------------------------------------------------------------------
Db---------55-55------------------------------------------------------------------

g|----------------------------------------------------------------------------------
d|----------------------------------------------------------------------------------
a|-11--11-11-11---------------------------------------------------------------------
Db|---------------------------------------------------------------------------------
Verse
g|----------------------------------------------------------------------------------
d|----------------------------------------------------------------------------------
a|-11-----------------------------------------------------------------------------
Db|----44-55-22---------------------------------------------------------------------
Chourus
g|----------------------------------------------------------------------------------
d|----------------------------------------------------------------------------------
a|--44------------------------------------------------------------------------------
Db|----77-555-0---------------------------------------------------------------------
solo
g|----------------------------------------------------------------------------------
d|----------------------------------------------------------------------------------
a|-1-3-4--------------------------------------------------------------------------
Db|------4-5-4-5--4-2-4-2-----------------------------------------------------------
Bridge
g|----------------------------------------------------------------------------------
d|----------------------------------------------------------------------------------
a|-ssss-4444-5555-------------------------------------------------------------------
Db|-------------- 4444-5555-4444-55555555-4444-2222-4444-2222----------------------
End
g|----------------------------------------------------------------------------------
d|----------------------------------------------------------------------------------
a|----------------------------------------------------------------------------------
Db|-0-4-5-55-0-4-55-4-0---0-4-5-55-0-4-55-4-0---------------------------------------
some other peeps have this tab right but they make u tune the whole bass down this 
way u only have to tune the E string down pleaze rate this! thanks yall ne comments 
            
Hard to play? Try these video lessons and learn fast. | Correct




comments powered by Disqus
↑ Back to top | Tablatures and chords are parodies/interpretations of the original songs. You may use it for private study, scholarship, research or language learning purposes only