>
 >
Phase

Phase Guitar Tabs

Breaking Benjamin - Phase chords, tabs, tablatures, lyrics

Guitar lessons | Add/correct | Request | Top 50 tabs Artists:  A B C D E F G H I J K L M N O P Q R S T U V W X Y Z 0-9

Phase Guitar Tabs – Breaking Benjamin

CD, Sheet music, Poster

Do you like Phase? Share with your friends now
Bass TabsDrum TabsTabsTabs v2

Notation:
  h - hammer on 
  p - pull off 
  b - bend string up
  r - release bend
  / - slide up
  \ - slide down
  p.m. - palm muting

Tuning (low to high):  Db, Ab, Db, Gb, Bb, Eb

Intro
Bongo drums

      Guitar 1 (00:44)
Eb|--------------------------------|--------------------------------|
Bb|--------------------------------|--------------------------------|
Gb|--------------------------------|--------------------------------|
Dd|--------------------------------|--------------------------------|
Ad|5-5-5-8-8-8-3-3-3-5-5-5-3-3-6-0-|5-5-5-8-8-8-3-3-3-5-5-5-3-3-6-0-|
Dd|5-5-5-8-8-8-3-3-3-5-5-5-3-3-6-0-|5-5-5-8-8-8-3-3-3-5-5-5-3-3-6-0-|
 *p.m. (play 6x; the 6th time no palm muting on 2nd bar)

      Guitar 2 (00:54)
Eb|--------------------------------|--------------------------------|
Bb|------------------------------ -|------------------------8-------|
Gb|7---------(7)-----------7b8r7-5-|7h8p7-----(7)-------------------|
Dd|--------------------------------|--------------------------------|
Ad|--------------------------------|--------------------------------|
Dd|--------------------------------|--------------------------------|
 

Eb|--------------------------------|--------------------------------|
Bb|--------------------------------|--------------------------------|
Gb|7---------(7)-----------7b8r7-5-|7h8p7--------7-(7)/-------------|
Dd|--------------------------------|--------------------------------|
Ad|--------------------------------|--------------------------------|
Dd|--------------------------------|--------------------------------|

Eb|--------------------------------|---------------------------8\---|
Bb|------8-------8-8---------8h9---|------8-------8-8---------------|
Gb|7----(7)----7-(7)-------7-------|7----(7)----7-(7)-------7-------|
Dd|--------------------------------|--------------------------------|
Ad|--------------------------------|--------------------------------|
Dd|--------------------------------|--------------------------------|

Eb|--------------------------------|--------------------------------|
Bb|------8-------8-8---------8h9---|-8b10------------(10)-----------|
Gb|7----(7)----7-(7)-------7-------|-10b12-----------(12)-----------|
Dd|--------------------------------|--------------------------------|
Ad|--------------------------------|--------------------------------|
Dd|--------------------------------|--------------------------------|

Lead-in  (01:16)
Eb|--------------------------------|--------------------------------|
Bb|--------------------------------|--------------------------------|
Gb|--------------------------------|--------------------------------|
Dd|5-5-5-8-8-8-3-3-3-5-5-5-3-3-6-0-|5-5-5-8-8-8-3-3-3-5-5-5-3-3-6-0-|
Ad|5-5-5-8-8-8-3-3-3-5-5-5-3-3-6-0-|5-5-5-8-8-8-3-3-3-5-5-5-3-3-6-0-|
Dd|5-5-5-8-8-8-3-3-3-5-5-5-3-3-6-0-|5-5-5-8-8-8-3-3-3-5-5-5-3-3-6-0-|
    (play 2x)

Verse (01:27)  "The light is..."
Eb|--------------------------------|--------------------------------|
Bb|--------------------------------|--------------------------------|
Gb|--------------------------------|--------------------------------|
Dd|--------------------------------|--------------------------------|
Ad|5-----8-----3-----5-----3-3-6-0-|5-----8-----3-----5-----3-3-6-0-|
Dd|5-----8-----3-----5-----3-3-6-0-|5-----8-----3-----5-----3-3-6-0-|
 *p.m. (play 2x)

Eb|--------------------------------|--------------------------------|
Bb|--------------------------------|--------------------------------|
Gb|--------------------------------|--------------------------------|
Dd|--------------------------------|--------------------------------|
Ad|5-5-5-8-8-8-3-3-3-5-5-5-3-3-6-0-|5-5-5-8-8-8-3-3-3-5-5-5-3-3-6-0-|
Dd|5-5-5-8-8-8-3-3-3-5-5-5-3-3-6-0-|5-5-5-8-8-8-3-3-3-5-5-5-3-3-6-0-|
 *p.m. (play 2x; the 2nd time no palm muting on 2nd bar)

Chorus (01:49)  "Out of the..."
Eb|--------------------------------|--------------------------------|
Bb|--------------------------------|--------------------------------|
Gb|--------------------------------|-3-------3-3-3---------3--------|
Dd|--------------------------------|-3-------3-3-3---------3--------|
Ad|-1----1-1-1---------1-1-1---1-1-|-1-------1-1-1---------1-0h1p0--|
Dd|-1----1-1-1---------1-1-1---1-1-|------------------------------3-|

Eb|--------------------------------|--------------------------------|
Bb|--------------------------------|--------------------------------|
Gb|--------------------------------|--------------------------------|
Dd|--------------------------------|-8---8---8---8---7---7---7---7--|
Ad|-1----1-1-1---------1-1-1---1-1-|-8---8---8---8---7---7---7---7--|
Dd|-1----1-1-1---------1-1-1---1-1-|-8---8---8---8---7---7---7---7--|
                                     *w/ rhythm fig.1

                  *rhythm fig.1 (clean tone) Guitar 2
             Eb|--------------------------------|
             Bb|--------------------------------|
             Gb|---------3---------------3------|
             Dd|-----3-------3-------3-------3--|
             Ad|-1---------------0--------------|
             Dd|--------------------------------|

Eb|--------------------------------|--------------------------------|
Bb|--------------------------------|--------------------------------|
Gb|--------------------------------|-3-------3-3-3---------3--------|
Dd|--------------------------------|-3-------3-3-3---------3--------|
Ad|-1----1-1-1---------1-1-1---1-1-|-1-------1-1-1---------1-0h1p0--|
Dd|-1----1-1-1---------1-1-1---1-1-|------------------------------3-|

Eb|--------------------------------|--------------------------------|
Bb|--------------------------------|--------------------------------|
Gb|--------------------------------|--------------------------------|
Dd|--------------------------------|-8---8---8---8---7---7---7---7--|
Ad|-1----1-1-1---------1-1-1---1-1-|-8---8---8---8---7---7---7---7--|
Dd|-1----1-1-1---------1-1-1---1-1-|-8---8---8---8---7---7---7---7--|
                                     *with rhythm fig.1

Eb|--------------------------------|--------------------------------|
Bb|--------------------------------|--------------------------------|
Gb|-------------------------3------|--------------------------------|
Dd|-5---5---5---5---3-------3------|-1--(1)--x-x-1----------(1)-x-x-|
Ad|-5---5---5---5-- 3-------1------|-1--(1)--x-x-1----------(1)-x-x-|
Dd|-5---5---5---5---3--------------|-1--(1)--x-x-1----------(1)-x-x-|

Eb|--------------------------------|
Bb|--------------------------------|
Gb|--------------------------------|
Dd|-x-1--1------3--3-----------x-3-|
Ad|-x-1--1------3--3-----------x-3-|
Dd|-x-1--1------3--3-----------x-3-|

Back to lead-in (02:19)

Chorus - slightly different than previous one (02:53) 
Eb|--------------------------------|--------------------------------|
Bb|--------------------------------|--------------------------------|
Gb|--------------------------------|-3-------3-3-3---------3--------|
Dd|--------------------------------|-3-------3-3-3---------3--------|
Ad|-1----1-1-1---------1-1-1---1-1-|-1-------1-1-1---------1-0h1p0--|
Dd|-1----1-1-1---------1-1-1---1-1-|------------------------------3-|

Eb|--------------------------------|--------------------------------|
Bb|--------------------------------|--------------------------------|
Gb|--------------------------------|--------------------------------|
Dd|--------------------------------|-8---8---8---8---7---7---7---7--|
Ad|-1----1-1-1---------1-1-1---1-1-|-8---8---8---8---7---7---7---7--|
Dd|-1----1-1-1---------1-1-1---1-1-|-8---8---8---8---7---7---7---7--|
                                     *w/ rhythm fig.1

              *rhythm fig.1 (clean tone) Guitar 2
             Eb|--------------------------------|
             Bb|--------------------------------|
             Gb|---------3---------------3------|
             Dd|-----3-------3-------3-------3--|
             Ad|-1---------------0--------------|
             Dd|--------------------------------|

Eb|--------------------------------|--------------------------------|
Bb|--------------------------------|--------------------------------|
Gb|--------------------------------|-3-------3-3-3---------3--------|
Dd|--------------------------------|-3-------3-3-3---------3--------|
Ad|-1----1-1-1---------1-1-1---1-1-|-1-------1-1-1---------1-0h1p0--|
Dd|-1----1-1-1---------1-1-1---1-1-|------------------------------3-|

Eb|--------------------------------|--------------------------------|
Bb|--------------------------------|--------------------------------|
Gb|--------------------------------|--------------------------------|
Dd|--------------------------------|-8---8---8---8---7---7---7---7--|
Ad|-1----1-1-1---------1-1-1---1-1-|-8---8---8---8---7---7---7---7--|
Dd|-1----1-1-1---------1-1-1---1-1-|-8---8---8---8---7---7---7---7--|
                                     *with rhythm fig.1

Eb|--------------------------------|--------------------------------|
Bb|--------------------------------|--------------------------------|
Gb|-------------------------3------|--------------------------------|
Dd|-5---5---5---5---3-------3------|-1-------x-x-1--------------x-x-|
Ad|-5---5---5---5-- 3-------1------|-1-------x-x-1--------------x-x-|
Dd|-5---5---5---5---3--------------|-1-------x-x-1--------------x-x-|

Eb|--------------------------------|--------------------------------|
Bb|--------------------------------|--------------------------------|
Gb|--------------------------------|--------------------------------|
Dd|-x-1--------x-x-1-----------x-x-|-x-1--------x-x-1-----------x-x-|
Ad|-x-1--------x-x-1-----------x-x-|-x-1--------x-x-1-----------x-x-|
Dd|-x-1--------x-x-1-----------x-x-|-x-1--------x-x-1-----------x-x-|

Eb|--------------------------------|
Bb|--------------------------------|
Gb|--------------------------------|
Dd|-x-1--1------3--3-----------x-3-|
Ad|-x-1--1------3--3-----------x-3-|
Dd|-x-1--1------3--3-----------x-3-|
      
Guitar solo (03:27)
Eb|--------------------------------|10-10-10-10-10-10---------------|
Bb|/8-8-8-8-8-8-8-81010101011111111|10-10-10-10-10-10---------------|
Gb|/7-7-7-7-7-7-7-7-7-7-7-7-7-7-7-7|--------------------------------|
Dd|--------------------------------|------------------x--3--3--3--3-|
Ad|--------------------------------|------------------x--3--3--3--3-|
Dd|--------------------------------|------------------x--3--3--3--3-|

Eb|------------------------11111111|10-10-10-10-10-10---------------|
Bb|/8-8-8-8-8-8-8-81010101011111111|10-10-10-10-10-10---------------|
Gb|/7-7-7-7-7-7-7-7-7-7-7-7--------|--------------------------------|
Dd|--------------------------------|----------------------3----5----|
Ad|--------------------------------|----------------------3----5----|
Dd|--------------------------------|----------------------3----5----|

Eb|--------------------------------|10-10-10-10-10-10---------------|
Bb|/8-8-8-8-8-8-8-81010101011111111|10-10-10-10-10-10---------------|
Gb|/7-7-7-7-7-7-7-7-7-7-7-7-7-7-7-7|--------------------------------|
Dd|--------------------------------|------------------x--3--3--3--3-|
Ad|--------------------------------|------------------x--3--3--3--3-|
Dd|--------------------------------|------------------x--3--3--3--3-|
                        "But I can..."
Eb|--------------------------------|
Bb|/8-8-8-8-8-8-8-8----------------|
Gb|/7-7-7-7-7-7-7-7----------------|
Dd|--------------------------3--3--|
Ad|--------------------------1--3--|
Dd|--------------------------1--3--|

Eb|--------------------------------|--------------------------------|
Bb|--------------------------------|--------------------------------|
Gb|--------------------------------|--------------------------------|
Dd|5-5-5-8-8-8-3-3-3-5-5-5-3-3-6-0-|5-5-5-8-8-8-3-3-3-5-5-5-3-3-6-0-|
Ad|5-5-5-8-8-8-3-3-3-5-5-5-3-3-6-0-|5-5-5-8-8-8-3-3-3-5-5-5-3-3-6-0-|
Dd|5-5-5-8-8-8-3-3-3-5-5-5-3-3-6-0-|5-5-5-8-8-8-3-3-3-5-5-5-3-3-6-0-|
    (play 2x)
                           "I know...                      "I know...
Eb|--------------------------------|--------------------------------|
Bb|--------------------------------|--------------------------------|
Gb|--------------------------------|--------------------------------|
Dd|--------------------------------|--------------------------------|
Ad|5-5-5-8-8-8-3-3-3-5-5-5-3-3-6-0-|5-5-5-8-8-8-3-3-3-5-5-5-3-3-6-0-|
Dd|5-5-5-8-8-8-3-3-3-5-5-5-3-3-6-0-|5-5-5-8-8-8-3-3-3-5-5-5-3-3-6-0-|
 *p.m. (play 2x; the 2nd time no palm muting on 2nd bar)

Outro (04:08)  "It's just a ***in'..."
Eb|--------------------------------|--------------------------------|
Bb|--------------------------------|--------------------------------|
Gb|--------------------------------|--------------------------------|
Dd|--------------------------------|--------------------------------|
Ad|-5-5---5---5-5-5--5--5--8-8-3-3-|-5-5---5---5-5-5--5--5--8-8-3-3-|
Dd|-5-5---5---5-5-5--5--5--8-8-3-3-|-5-5---5---5-5-5--5--5--8-8-3-3-|
    (play 3x)

Eb|--------------------------------|--------------------------------|
Bb|--------------------------------|--------------------------------|
Gb|--------------------------------|--------------------------------|
Dd|--------------------------------|--------------------------------|
Ad|-5-5---5---5-5-5--5--5--8-8-3-3-|-5-5---5---5-5-5--5-------------|
Dd|-5-5---5---5-5-5--5--5--8-8-3-3-|-5-5---5---5-5-5--5-------------|





Comments


Popular Breaking Benjamin tabs & chords
Blow Me Away Bass Tabs
Sugarcoat Bass Tabs
Dance With The Devil 3 Chords
Forget It Chords
You Fight Me Chords
Breakdown Tabs
Dance With The Devil 1 Tabs
Enjoy The Silence Tabs
Home 3 Tabs
So Cold 1 Tabs


Song lyrics



↑ Back to top | Tablatures and chords are parodies/interpretations of the original songs. You may use it for private study, scholarship, research or language learning purposes only
© 2014 AZChords.com Contact us | Privacy policy | DMCA | Add/correct tabs | Request tabs | Top 50 tabs