» » »

Medicate Bass tabs (ver.1)

Artists:  A B C D E F G H I J K L M N O P Q R S T U V W X Y Z # 

Medicate Bass tabs (ver.1)

Breaking Benjamin
Rating:
0/5 (0 votes)

Hard to play? Try these video lessons and learn fast.
                (1)
Medicate

Intro

Gb)---------------------------------|
Db)---------------------------------|
Ab)---------------------------------|
Db)0-0-0-0-4-4-4-4-8-8-8-8-7-7-7-7--|

Verse

Gb)---------------------------------|
Db)---------------------------------|
Ab)---------------------------------|
Db)0-0-4-4-8-8-7-8-7----------------|

Breakdown to chorus

Gb)---------------------------------|
Db)---------------------------------|
Ab)---------------------------------|
Db)8-8-8-8-8-8-8-8-8-8-8-8-8-8-10/--|

Chorus

Gb)----------------------------------------------------------------|
Db)--------------------------3-5-3---------------------------------|
Ab)----------------3-3-3-3-3-------5-5-5-5-5-7-8-7-----------------|
Db)3-3-3-3-3-5-7-8---------------------------------8-8-8-8-8-7-8-7-|

Breakdown to 2nd verse

Gb)----------------------|
Db)----------------------|
Ab)----------------------|
Db)0-0-4-4-8-8-8-8-7-10/-|

3rd Chorus

Gb)----------------------------------------------------------------------------|
Db)----------------------------------------------------------------------------|
Ab)--------------------3-3-x-x-x-3-3-x-x-x-5-5-x-x-x-5-5-x-x-x-----------------|
Db)3-3-x-x-x-3-3-x-x-x-----------------------------------------8-8-8-8-8-7-8-7-|

Interlude

Gb)---------------------------------|
Db)---------------------------------|
Ab)7---7----------------------------|
Db)--0---0-4-0-4-0-8-0-8-0-7-0-7-0--|

End

Gb)-----------------------------------------------------------------|
Db)-----------------------------------------------------------------|
Ab)----------------3-3-3-3-3-3-3-3-5-5-5-5-5-5-5-5------------------|
Db)3-3-3-3-3-3-3-3---------------------------------8-8-8-8-8-7-8-7--|

End on

Gb)---|
Db)---|
Ab)---|
Db)3--|



X=Muffled string

I think this tab is accurate I worked on it for a long time
            
Hard to play? Try these video lessons and learn fast. | Correct




comments powered by Disqus
↑ Back to top | Tablatures and chords are parodies/interpretations of the original songs. You may use it for private study, scholarship, research or language learning purposes only