>
 >
Ladybug

Ladybug Guitar Tabs

Breaking Benjamin - Ladybug chords, tabs, tablatures, lyrics

Guitar lessons | Add/correct | Request | Top 50 tabs Artists:  A B C D E F G H I J K L M N O P Q R S T U V W X Y Z 0-9

Ladybug Guitar Tabs – Breaking Benjamin

CD, Sheet music, Poster

Do you like Ladybug? Share with your friends now
Bass TabsTabsTabs v2Tabs v3
Breaking Benjamin
So Cold EP
Lady Bug
Tuning E A D G B E

Legend
/-slide up              p-pull off          pm-palm mute          \-slide down


Intro: Guitar 1 Ben (Distorted)
E|----------------------------------------------------------------------------|
B|----------------------------------------------------------------------------|
G|--5---5-5-5-5-5-5-5-5-5-5-5----------5---5-5-5-5-5-5-5-5-5-5-5--------------|
D|--6---6-6-6-6-6-6-6-6-6-6-6---4-/5---6---6-6-6-6-6-6-6-6-6-6-6---4-/5-------|
A|--6---6-6-6-6-6-6-6-6-6-6-6---2-/3---6---6-6-6-6-6-6-6-6-6-6-6---2-/3-------|
E|--4---4-4-4-4-4-4-4-4-4-4-4----------4---4-4-4-4-4-4-4-4-4-4-4--------------|
                                                                              |
Intro: Guitar 2 Aaron (Silent)                                                |
E|----------------------------------------------------------------------------|
B|----------------------------------------------------------------------------|
G|----------------------------------------------------------------------------|
D|----------------------------------------------------------------------------|
A|----------------------------------------------------------------------------|
E|----------------------------------------------------------------------------|

Intro: Guitar 1 (Distorted)
E|----------------------------------------------------------------------------|
B|----------------------------------------------------------------------------|
G|--5---5-5-5-5-5-5-5-5-5-5-5----------5---5-5-5-5-5-5-5-5-5-5-5--------------|
D|--6---6-6-6-6-6-6-6-6-6-6-6---4-/5---6---6-6-6-6-6-6-6-6-6-6-6---4-/5-------|
A|--6---6-6-6-6-6-6-6-6-6-6-6---2-/3---6---6-6-6-6-6-6-6-6-6-6-6---2-/3-------|
E|--4---4-4-4-4-4-4-4-4-4-4-4----------4---4-4-4-4-4-4-4-4-4-4-4--------------|
                                                                              |
Intro: Guitar 2 (Distorted)                                                   |
E|------4-----------------4----------------4-----------------4----------------|
B|--4-4-----4-4-7p4---4-4-----4-4-4-4--4-4-----4-4-7p4---4-4-----4-4-7p4------|
G|--5-5---5-5-5-------5-5---5-5-5-5-5--5-5---5-5-5-------5-5---5-5-5----------|
D|----------------------------------------------------------------------------|
A|----------------------------------------------------------------------------|
E|----------------------------------------------------------------------------|

Verse 1: Guitar 1 (Distorted)
E|----------------------------------------------------------------------------|
B|----------------------------------------------------------------------------|
G|----------------------------------------------------------------------------|
D|--6---6-6-6-6-6-6-6-6-6-6-6---4-/5---6---6-6-6-6-6-6-6-6-6-6-6---4-/5-------|
A|--6---6-6-6-6-6-6-6-6-6-6-6---2-/3---6---6-6-6-6-6-6-6-6-6-6-6---2-/3-------|
E|--4---4-4-4-4-4-4-4-4-4-4-4----------4---4-4-4-4-4-4-4-4-4-4-4--------------|
        pmpmpmpmpmpmpmpmpmpmpm             pmpmpmpmpmpmpmpmpmpmpm             |
                                                                              |
Verse 1: Guitar 2 Aaron (Silent)                                              |
E|----------------------------------------------------------------------------|
B|--4-------------------------------------------------------------------------|
G|--5-------------------------------------------------------------------------|
D|----------------------------------------------------------------------------|
A|----------------------------------------------------------------------------|
E|----------------------------------------------------------------------------|

Verse 1: Guitar 1 (Distorted)
E|----------------------------------------------------------------------------|
B|----------------------------------------------------------------------------|
G|----------------------------------------------------------------------------|
D|--6---6-6-6-6-6-6-6-6-6-6-6-6-6-6----2-----------------4--------------------|
A|--6---6-6-6-6-6-6-6-6-6-6-6-6-6-6----2-----------------4--------------------|
E|--4---4-4-4-4-4-4-4-4-4-4-4-4-4-4----0-----------------2--------------------|
        pmpmpmpmpmpm                                                          |
                                                                              |
Verse 1: Guitar 2 (Distorted)                                                 |
E|-----------------------------------------4-----------------4----------------|
B|-------------------------------------4-4---4-4-4-7p4---4-4---4-4-4-4-4------|
G|----------------------------------------------------------------------------|
D|--6---6-6-6-6-6-6-6-6-6-6-6-6-6-6-------------------------------------------|
A|--6---6-6-6-6-6-6-6-6-6-6-6-6-6-6-------------------------------------------|
E|--4---4-4-4-4-4-4-4-4-4-4-4-4-4-4-------------------------------------------|
        pmpmpmpmpmpm

Verse 1 pt. 2: Guitar 1 (Distorted)
E|----------------------------------------------------------------------------|
B|----------------------------------------------------------------------------|
G|--5---5-5-5-5-5-5-5-5-5-5-5----------5---5-5-5-5-5-5-5-5-5-5-5--------------|
D|--6---6-6-6-6-6-6-6-6-6-6-6---4-/5---6---6-6-6-6-6-6-6-6-6-6-6---4-/5-------|
A|--6---6-6-6-6-6-6-6-6-6-6-6---2-/3---6---6-6-6-6-6-6-6-6-6-6-6---2-/3-------|
E|--4---4-4-4-4-4-4-4-4-4-4-4----------4---4-4-4-4-4-4-4-4-4-4-4--------------|
                                                                              |
Verse 1 pt. 2: Guitar 2 (Distorted)                                           |
E|------4-----------------4----------------4-----------------4----------------|
B|--4-4-----4-4-7p4---4-4-----4-4-4-4--4-4-----4-4-7p4---4-4-----4-4-7p4------|
G|--5-5---5-5-5-------5-5---5-5-5-5-5--5-5---5-5-5-------5-5---5-5-5----------|
D|----------------------------------------------------------------------------|
A|----------------------------------------------------------------------------|
E|----------------------------------------------------------------------------|

Verse 1 pt. 2: Guitar 1 (Distorted)
E|----------------------------------------------------------------------------|
B|----------------------------------------------------------------------------|
G|--5---5-5-5-5-5-5-5-5-5-5-5-5-5-5-------------------------------------------|
D|--6---6-6-6-6-6-6-6-6-6-6-6-6-6-6----2-----------------4--------------------|
A|--6---6-6-6-6-6-6-6-6-6-6-6-6-6-6----2-----------------4--------------------|
E|--4---4-4-4-4-4-4-4-4-4-4-4-4-4-4----0-----------------2--------------------|
                                                                              |
Verse 1 pt. 2: Guitar 2 (Distorted)                                           |
E|------4-----------------4----------------4-----------------4----------------|
B|--4-4-----4-4-7p4---4-4-----4-4-4-4--4-4-----4-4-7p4---4-4-----4-4-7p4------|
G|--5-5---5-5-5-------5-5---5-5-5-5-5--5-5---5-5-5-------5-5---5-5-5----------|
D|----------------------------------------------------------------------------|
A|----------------------------------------------------------------------------|
E|----------------------------------------------------------------------------|

Pre Chorus: Guitar 1 (Distorted)
E|----------------------------------------------------------------------------|
B|----------------------------------------------------------------------------|
G|--5---5-5-5-5-5-5-5-5-5-5-5----------5---5-5-5-5-5-5-5-5-5-5-5--------------|
D|--6---6-6-6-6-6-6-6-6-6-6-6---4-/5---6---6-6-6-6-6-6-6-6-6-6-6---4-/5-------|
A|--6---6-6-6-6-6-6-6-6-6-6-6---2-/3---6---6-6-6-6-6-6-6-6-6-6-6---2-/3-------|
E|--4---4-4-4-4-4-4-4-4-4-4-4----------4---4-4-4-4-4-4-4-4-4-4-4--------------|
                                                                              |
Pre Chorus: Guitar 2 (Distorted)                                              |
E|------4-----------------4----------------4-----------------4----------------|
B|--4-4-----4-4-7p4---4-4-----4-4-4-4--4-4-----4-4-7p4---4-4-----4-4-7p4------|
G|--5-5---5-5-5-------5-5---5-5-5-5-5--5-5---5-5-5-------5-5---5-5-5----------|
D|----------------------------------------------------------------------------|
A|----------------------------------------------------------------------------|
E|----------------------------------------------------------------------------|

Pre Chorus: Guitar 1 (Distorted)
E|----------------------------------------------------------------------------|
B|----------------------------------------------------------------------------|
G|----------------------------------------------------------------------------|
D|----------2----------------------------------4------------------------------|
A|--6---4---2----------------------------------4------------------------------|
E|--4---2---0----------------------------------2------------------------------|
                                                                              |
Pre Chorus: Guitar 2 (Distorted)                                              |
E|----------------------------------------------------------------------------|
B|--1/2\1/4----------------------------1/2\1/4--------------------------------|
G|----------------------------------------------------------------------------|
D|----------------------------------------------------------------------------|
A|----------------------------------------------------------------------------|
E|----------------------------------------------------------------------------|

Chorus: Guitar 1 (Distorted) Play 3 Times
E|----------------------------------------------------------------------------|
B|----------------------------------------------------------------------------|
G|--4---4--4--4-4-4---6---6--6--6-6-6---8---8--8--8-8-8---9---9--9--9-9-9-----|
D|--4---4--4--4-4-4---6---6--6--6-6-6---8---8--8--8-8-8---9---9--9--9-9-9-----|
A|--2---2--2--2-2-2---4---4--4--4-4-4---6---6--6--6-6-6---7---7--7--7-7-7-----|
E|--2---2--2--2-2-2---4---4--4--4-4-4---6---6--6--6-6-6---7---7--7--7-7-7-----|
                                                                              |
Chorus: Guitar 2 (Distorted)                                                  |
E|----------------------------------------------------------------------------|
B|----------------------------------------------------------------------------|
G|---------4-----------------4-----------------4-----------------8------------|
D|------4-------4---------4-------4---------4-------4---------9-------9-------|
A|--2-----------------4-----------------6-----------------7-------------------|
E|----------------------------------------------------------------------------|

Chorus pt. 2: Guitar 1 (Distorted)
E|----------------------------------------------------------------------------|
B|----------------------------------------------------------------------------|
G|--4-4-4-4-4-4-4-4--6-6-6-6-6-6-6-6--9-9-9-9-9-9-9-9-9-----------------------|
D|--4-4-4-4-4-4-4-4--6-6-6-6-6-6-6-6--9-9-9-9-9-9-9-9-9---------------4-/5----|
A|--2-2-2-2-2-2-2-2--4-4-4-4-4-4-4-4--7-7-7-7-7-7-7-7-7---------------2-/3----|
E|--2-2-2-2-2-2-2-2--4-4-4-4-4-4-4-4--7-7-7-7-7-7-7-7-7-----------------------|
                                                                              |
Chorus pt. 2: Guitar 1 (Distorted)                                            |
E|----------------------------------------------------------------------------|
B|----------------------------------------------------------------------------|
G|--4-4-4-4-4-4-4-4--6-6-6-6-8-8-8-8--9-9-9-9-9-9-9-9-9-----------------------|
D|--4-4-4-4-4-4-4-4--6-6-6-6-8-8-8-8--9-9-9-9-9-9-9-9-9-----------------------|
A|--2-2-2-2-2-2-2-2--4-4-4-4-6-6-6-6--7-7-7-7-7-7-7-7-7-----------------------|
E|----------------------------------------------------------------------------|

Post Chorus: Guitar 1 (Distorted)
E|----------------------------------------------------------------------------|
B|----------------------------------------------------------------------------|
G|--5---5-5-5-5-5-5-5-5-5-5-5----------5---5-5-5-5-5-5-5-5-5-5-5--------------|
D|--6---6-6-6-6-6-6-6-6-6-6-6---4-/5---6---6-6-6-6-6-6-6-6-6-6-6---4-/5-------|
A|--6---6-6-6-6-6-6-6-6-6-6-6---2-/3---6---6-6-6-6-6-6-6-6-6-6-6---2-/3-------|
E|--4---4-4-4-4-4-4-4-4-4-4-4----------4---4-4-4-4-4-4-4-4-4-4-4--------------|
                                                                              |
Post Chorus: Guitar 2 (Distorted)                                             |
E|------4-----------------4----------------4-----------------4----------------|
B|--4-4-----4-4-7p4---4-4-----4-4-4-4--4-4-----4-4-7p4---4-4-----4-4-7p4------|
G|--5-5---5-5-5-------5-5---5-5-5-5-5--5-5---5-5-5-------5-5---5-5-5----------|
D|----------------------------------------------------------------------------|
A|----------------------------------------------------------------------------|
E|----------------------------------------------------------------------------|

Post Chorus: Guitar 1 (Distorted)
E|----------------------------------------------------------------------------|
B|----------------------------------------------------------------------------|
G|--5---5-5-5-5-5-5-5-5-5-5-5----------5---5-5-5-5-5-5-5-5-5-5-5--------------|
D|--6---6-6-6-6-6-6-6-6-6-6-6---4-/5---6---6-6-6-6-6-6-6-6-6-6-6---4-/5-------|
A|--6---6-6-6-6-6-6-6-6-6-6-6---2-/3---6---6-6-6-6-6-6-6-6-6-6-6---2-/3-------|
E|--4---4-4-4-4-4-4-4-4-4-4-4----------4---4-4-4-4-4-4-4-4-4-4-4--------------|
                                                                              |
Post Chorus: Guitar 2 (Distorted)                                             |
E|------4-----------------4----------------4-----------------4----------------|
B|--4-4-----4-4-7p4---4-4-----4-4-4-4--4-4-----4-4-7p4---4-4-----4-4-7p4------|
G|--5-5---5-5-5-------5-5---5-5-5-5-5--5-5---5-5-5-------5-5---5-5-5----------|
D|----------------------------------------------------------------------------|
A|----------------------------------------------------------------------------|
E|----------------------------------------------------------------------------|

Verse 2: Guitar 1 (Distorted)
E|----------------------------------------------------------------------------|
B|----------------------------------------------------------------------------|
G|----------------------------------------------------------------------------|
D|--6---6-6-6-6-6-6-6-6-6-6-6---4-/5---6---6-6-6-6-6-6-6-6-6-6-6---4-/5-------|
A|--6---6-6-6-6-6-6-6-6-6-6-6---2-/3---6---6-6-6-6-6-6-6-6-6-6-6---2-/3-------|
E|--4---4-4-4-4-4-4-4-4-4-4-4----------4---4-4-4-4-4-4-4-4-4-4-4--------------|
        pmpmpmpmpmpmpmpmpmpmpm             pmpmpmpmpmpmpmpmpmpmpm             |
                                                                              |
Verse 2: Guitar 2 Aaron (Silent)                                              |
E|----------------------------------------------------------------------------|
B|--4-------------------------------------------------------------------------|
G|--5-------------------------------------------------------------------------|
D|----------------------------------------------------------------------------|
A|----------------------------------------------------------------------------|
E|----------------------------------------------------------------------------|

Verse 2: Guitar 1 (Distorted)
E|----------------------------------------------------------------------------|
B|----------------------------------------------------------------------------|
G|----------------------------------------------------------------------------|
D|--6---6-6-6-6-6-6-6-6-6-6-6-6-6-6----2-----------------4--------------------|
A|--6---6-6-6-6-6-6-6-6-6-6-6-6-6-6----2-----------------4--------------------|
E|--4---4-4-4-4-4-4-4-4-4-4-4-4-4-4----0-----------------2--------------------|
        pmpmpmpmpmpm                                                          |
                                                                              |
Verse 2: Guitar 2 (Distorted)                                                 |
E|-----------------------------------------4-----------------4----------------|
B|-------------------------------------4-4---4-4-4-7p4---4-4---4-4-4-4-4------|
G|----------------------------------------------------------------------------|
D|--6---6-6-6-6-6-6-6-6-6-6-6-6-6-6-------------------------------------------|
A|--6---6-6-6-6-6-6-6-6-6-6-6-6-6-6-------------------------------------------|
E|--4---4-4-4-4-4-4-4-4-4-4-4-4-4-4-------------------------------------------|
        pmpmpmpmpmpm

Verse 2 pt. 2: Guitar 1 (Distorted)
E|----------------------------------------------------------------------------|
B|----------------------------------------------------------------------------|
G|--5---5-5-5-5-5-5-5-5-5-5-5----------5---5-5-5-5-5-5-5-5-5-5-5--------------|
D|--6---6-6-6-6-6-6-6-6-6-6-6---4-/5---6---6-6-6-6-6-6-6-6-6-6-6---4-/5-------|
A|--6---6-6-6-6-6-6-6-6-6-6-6---2-/3---6---6-6-6-6-6-6-6-6-6-6-6---2-/3-------|
E|--4---4-4-4-4-4-4-4-4-4-4-4----------4---4-4-4-4-4-4-4-4-4-4-4--------------|
                                                                              |
Verse 2 pt. 2: Guitar 2 (Distorted)                                           |
E|------4-----------------4----------------4-----------------4----------------|
B|--4-4-----4-4-7p4---4-4-----4-4-4-4--4-4-----4-4-7p4---4-4-----4-4-7p4------|
G|--5-5---5-5-5-------5-5---5-5-5-5-5--5-5---5-5-5-------5-5---5-5-5----------|
D|----------------------------------------------------------------------------|
A|----------------------------------------------------------------------------|
E|----------------------------------------------------------------------------|

Verse 2 pt. 2: Guitar 1 (Distorted)
E|----------------------------------------------------------------------------|
B|----------------------------------------------------------------------------|
G|--5---5-5-5-5-5-5-5-5-5-5-5-5-5-5-------------------------------------------|
D|--6---6-6-6-6-6-6-6-6-6-6-6-6-6-6----2-----------------4--------------------|
A|--6---6-6-6-6-6-6-6-6-6-6-6-6-6-6----2-----------------4--------------------|
E|--4---4-4-4-4-4-4-4-4-4-4-4-4-4-4----0-----------------2--------------------|
                                                                              |
Verse 2 pt. 2: Guitar 2 (Distorted)                                           |
E|------4-----------------4----------------4-----------------4----------------|
B|--4-4-----4-4-7p4---4-4-----4-4-4-4--4-4-----4-4-7p4---4-4-----4-4-7p4------|
G|--5-5---5-5-5-------5-5---5-5-5-5-5--5-5---5-5-5-------5-5---5-5-5----------|
D|----------------------------------------------------------------------------|
A|----------------------------------------------------------------------------|
E|----------------------------------------------------------------------------|

Pre Chorus: Guitar 1 (Distorted)
E|----------------------------------------------------------------------------|
B|----------------------------------------------------------------------------|
G|--5---5-5-5-5-5-5-5-5-5-5-5----------5---5-5-5-5-5-5-5-5-5-5-5--------------|
D|--6---6-6-6-6-6-6-6-6-6-6-6---4-/5---6---6-6-6-6-6-6-6-6-6-6-6---4-/5-------|
A|--6---6-6-6-6-6-6-6-6-6-6-6---2-/3---6---6-6-6-6-6-6-6-6-6-6-6---2-/3-------|
E|--4---4-4-4-4-4-4-4-4-4-4-4----------4---4-4-4-4-4-4-4-4-4-4-4--------------|
                                                                              |
Pre Chorus: Guitar 2 (Distorted)                                              |
E|------4-----------------4----------------4-----------------4----------------|
B|--4-4-----4-4-7p4---4-4-----4-4-4-4--4-4-----4-4-7p4---4-4-----4-4-7p4------|
G|--5-5---5-5-5-------5-5---5-5-5-5-5--5-5---5-5-5-------5-5---5-5-5----------|
D|----------------------------------------------------------------------------|
A|----------------------------------------------------------------------------|
E|----------------------------------------------------------------------------|

Pre Chorus: Guitar 1 (Distorted)
E|----------------------------------------------------------------------------|
B|----------------------------------------------------------------------------|
G|----------------------------------------------------------------------------|
D|----------2----------------------------------4------------------------------|
A|--6---4---2----------------------------------4------------------------------|
E|--4---2---0----------------------------------2------------------------------|
                                                                              |
Pre Chorus: Guitar 2 (Distorted)                                              |
E|----------------------------------------------------------------------------|
B|--1/2\1/4----------------------------1/2\1/4--------------------------------|
G|----------------------------------------------------------------------------|
D|----------------------------------------------------------------------------|
A|----------------------------------------------------------------------------|
E|----------------------------------------------------------------------------|

Chorus: Guitar 1 (Distorted) Play 3 Times
E|----------------------------------------------------------------------------|
B|----------------------------------------------------------------------------|
G|--4---4--4--4-4-4---6---6--6--6-6-6---8---8--8--8-8-8---9---9--9--9-9-9-----|
D|--4---4--4--4-4-4---6---6--6--6-6-6---8---8--8--8-8-8---9---9--9--9-9-9-----|
A|--2---2--2--2-2-2---4---4--4--4-4-4---6---6--6--6-6-6---7---7--7--7-7-7-----|
E|--2---2--2--2-2-2---4---4--4--4-4-4---6---6--6--6-6-6---7---7--7--7-7-7-----|
                                                                              |
Chorus: Guitar 2 (Distorted)                                                  |
E|----------------------------------------------------------------------------|
B|----------------------------------------------------------------------------|
G|---------4-----------------4-----------------4-----------------8------------|
D|------4-------4---------4-------4---------4-------4---------9-------9-------|
A|--2-----------------4-----------------6-----------------7-------------------|
E|----------------------------------------------------------------------------|

Chorus pt. 2: Guitar 1 (Distorted)
E|----------------------------------------------------------------------------|
B|----------------------------------------------------------------------------|
G|--4-4-4-4-4-4-4-4--6-6-6-6-6-6-6-6--9-9-9-9-9-9-9-9-9-----------------------|
D|--4-4-4-4-4-4-4-4--6-6-6-6-6-6-6-6--9-9-9-9-9-9-9-9-9---------------4-/5----|
A|--2-2-2-2-2-2-2-2--4-4-4-4-4-4-4-4--7-7-7-7-7-7-7-7-7---------------2-/3----|
E|--2-2-2-2-2-2-2-2--4-4-4-4-4-4-4-4--7-7-7-7-7-7-7-7-7-----------------------|
                                                                              |
Chorus pt. 2: Guitar 1 (Distorted)                                            |
E|----------------------------------------------------------------------------|
B|----------------------------------------------------------------------------|
G|--4-4-4-4-4-4-4-4--6-6-6-6-8-8-8-8--9-9-9-9-9-9-9-9-9-----------------------|
D|--4-4-4-4-4-4-4-4--6-6-6-6-8-8-8-8--9-9-9-9-9-9-9-9-9-----------------------|
A|--2-2-2-2-2-2-2-2--4-4-4-4-6-6-6-6--7-7-7-7-7-7-7-7-7-----------------------|
E|----------------------------------------------------------------------------|

Bridge: Guitar 1 (Distorted)
E|----------------------------------------------------------------------------|
B|----------------------------------------------------------------------------|
G|--6---6-----------------------6---6--6--6-6-6---6---6--6--6-6-6-------------|
D|--6---6----------------4-/5---6---6--6--6-6-6---6---6--6--6-6-6----4-/5-----|
A|--4---4----------------2-/3---4---4--4--4-4-4---4---4--4--4-4-4----2-/3-----|
E|--4---4-----------------------4---4--4--4-4-4---4---4--4--4-4-4-------------|

Bridge: Guitar 1 (Distorted)
E|----------------------------------------------------------------------------|
B|----------------------------------------------------------------------------|
G|--5---5-5-5-5-5-5-5-5-5-5-5----------5---5-5-5-5-5-5-5-5-5-5-5--------------|
D|--6---6-6-6-6-6-6-6-6-6-6-6---4-/5---6---6-6-6-6-6-6-6-6-6-6-6---4-/5-------|
A|--6---6-6-6-6-6-6-6-6-6-6-6---2-/3---6---6-6-6-6-6-6-6-6-6-6-6---2-/3-------|
E|--4---4-4-4-4-4-4-4-4-4-4-4----------4---4-4-4-4-4-4-4-4-4-4-4--------------|
                                                                              |
Bridge: Guitar 2 (Distorted)                                                  |
E|------4-----------------4----------------4-----------------4----------------|
B|--4-4-----4-4-7p4---4-4-----4-4-4-4--4-4-----4-4-7p4---4-4-----4-4-7p4------|
G|--5-5---5-5-5-------5-5---5-5-5-5-5--5-5---5-5-5-------5-5---5-5-5----------|
D|----------------------------------------------------------------------------|
A|----------------------------------------------------------------------------|
E|----------------------------------------------------------------------------|

Bridge: Guitar 1 (Distorted) Play 3 Times
E|----------------------------------------------------------------------------|
B|----------------------------------------------------------------------------|
G|--6-6-6-6-6-6-6-6-6-6-6-6-----6-6-6-6-6-6-6-6-6-6-6-6-6-6-------------------|
D|--6-6-6-6-6-6-6-6-6-6-6-6-4/5-6-6-6-6-6-6-6-6-6-6-6-6-6-6-2-2-2-2-2-2-2-2-2-|
A|--4-4-4-4-4-4-4-4-4-4-4-4-2/3-4-4-4-4-4-4-4-4-4-4-4-4-4-4-2-2-2-2-2-2-2-2-2-|
E|--4-4-4-4-4-4-4-4-4-4-4-4-----4-4-4-4-4-4-4-4-4-4-4-4-4-4-0-0-0-0-0-0-0-0-0-|
                                                            pmpmpmpmpmpmpmpm  |
                                                                              |
Bridge: Guitar 2 (Distorted)                                                  |
E|------4-----------------4----------------4----------------------------------|
B|--4-4-----4-4-7p4---4-4-----4-4-4-4--4-4-----4-4-7p4---4--4-4-4-4-4-4-4-4-4-|
G|--5-5---5-5-5-------5-5---5-5-5-5-5--5-5---5-5-5-------5--------------------|
D|----------------------------------------------------------------------------|
A|----------------------------------------------------------------------------|
E|----------------------------------------------------------------------------|

Chorus: Guitar 1 (Distorted) Play 3 Times
E|----------------------------------------------------------------------------|
B|----------------------------------------------------------------------------|
G|--4---4--4--4-4-4---6---6--6--6-6-6---8---8--8--8-8-8---9---9--9--9-9-9-----|
D|--4---4--4--4-4-4---6---6--6--6-6-6---8---8--8--8-8-8---9---9--9--9-9-9-----|
A|--2---2--2--2-2-2---4---4--4--4-4-4---6---6--6--6-6-6---7---7--7--7-7-7-----|
E|--2---2--2--2-2-2---4---4--4--4-4-4---6---6--6--6-6-6---7---7--7--7-7-7-----|
                                                                              |
Chorus: Guitar 2 (Distorted)                                                  |
E|----------------------------------------------------------------------------|
B|----------------------------------------------------------------------------|
G|---------4-----------------4-----------------4-----------------8------------|
D|------4-------4---------4-------4---------4-------4---------9-------9-------|
A|--2-----------------4-----------------6-----------------7-------------------|
E|----------------------------------------------------------------------------|

Chorus pt. 2: Guitar 1 (Distorted) Play 2 Times
E|----------------------------------------------------------------------------|
B|----------------------------------------------------------------------------|
G|--4-4-4-4-4-4-4-4---6-6-6-6--6-6-6-6---9-9-9-9-9-9-9-9-9--------------------|
D|--4-4-4-4-4-4-4-4---6-6-6-6--6-6-6-6---9-9-9-9-9-9-9-9-9--------------------|
A|--2-2-2-2-2-2-2-2---4-4-4-4--4-4-4-4---7-7-7-7-7-7-7-7-7--------------------|
E|--2-2-2-2-2-2-2-2---4-4-4-4--4-4-4-4---7-7-7-7-7-7-7-7-7--------------------|
                                                                              |
Chorus pt. 2: Guitar 1 (Distorted)                                            |
E|----------------------------------------------------------------------------|
B|----------------------------------------------------------------------------|
G|--4-4-4-4-4-4-4-4---6-6-6-6--8-8-8-8---9-9-9-9-9-9-9-9-9--------------------|
D|--4-4-4-4-4-4-4-4---6-6-6-6--8-8-8-8---9-9-9-9-9-9-9-9-9--------------------|
A|--2-2-2-2-2-2-2-2---4-4-4-4--6-6-6-6---7-7-7-7-7-7-7-7-7--------------------|
E|----------------------------------------------------------------------------|

Chorus pt. 3: Guitar 1 (Distorted)
E|----------------------------------------------------------------------------|
B|----------------------------------------------------------------------------|
G|--4--4--4--4--4--4--4--4--6--6--6--6--8--8--8--8--9--9--9--9--9--9--9--9--9-|
D|--4--4--4--4--4--4--4--4--6--6--6--6--8--8--8--8--9--9--9--9--9--9--9--9--9-|
A|--2--2--2--2--2--2--2--2--4--4--4--4--6--6--6--6--7--7--7--7--7--7--7--7--7-|
E|--2--2--2--2--2--2--2--2--4--4--4--4--6--6--6--6--7--7--7--7--7--7--7--7--7-|
                                                                              |
Chorus pt. 3: Guitar 1 (Distorted)                                            |
E|----------------------------------------------------------------------------|
B|--17--0--0--0-14--0--0--0-16--0--0--0-14-0-0-0--12-000-14-000-16-000-14-000-|
G|----------------------------------------------------------------------------|
D|----------------------------------------------------------------------------|
A|----------------------------------------------------------------------------|
E|----------------------------------------------------------------------------|

Chorus pt. 3: Guitar 1 (Distorted)
E|----------------------------------------------------------------------------|
B|----------------------------------------------------------------------------|
G|--4--4--4--4--4--4--4--4--6--6--6--6--8--8--8--8--9--9--9--9--9--9--9--9--9-|
D|--4--4--4--4--4--4--4--4--6--6--6--6--8--8--8--8--9--9--9--9--9--9--9--9--9-|
A|--2--2--2--2--2--2--2--2--4--4--4--4--6--6--6--6--7--7--7--7--7--7--7--7--7-|
E|--2--2--2--2--2--2--2--2--4--4--4--4--6--6--6--6--7--7--7--7--7--7--7--7--7-|
                                                                              |
Chorus pt. 3: Guitar 1 (Distorted)                                            |
E|----------------------------------------------------------------------------|
B|--17--0--0--0-14--0--0--0-16--0--0--0-14------------------------------------|
G|----------------------------------------------------------------------------|
D|----------------------------------------------------------------------------|
A|----------------------------------------------------------------------------|
E|----------------------------------------------------------------------------|

Finished!





Comments


Popular Breaking Benjamin tabs & chords
Skin Bass Tabs
Without You 3 Chords
Had Enough Drum Tabs
Anthem Of The Angels 2 Tabs
Blow Me Away Tabs
Forget It 1 Tabs
Natural Life Tabs
Simple Design 3 Tabs
So Cold 4 Tabs
Unknown Soldier Intro 1 Tabs


Song lyrics



↑ Back to top | Tablatures and chords are parodies/interpretations of the original songs. You may use it for private study, scholarship, research or language learning purposes only
© 2014 AZChords.com Contact us | Privacy policy | DMCA | Add/correct tabs | Request tabs | Top 50 tabs