» » »

Breaking Benjamin, Hopeless Tabs (ver.2)

Artists:  A B C D E F G H I J K L M N O P Q R S T U V W X Y Z # 

Hopeless Tabs (ver.2)

Breaking Benjamin Tabs
 Rating:
4/5 (4 votes)
Hopeless lessons Tabs too difficult? Try these video lessons and learn fast
1
                Breaking Benjamin
Tuning C G C F A D

Legend
/-slide up                     pm-palm mute

Intro: Guitars 1 & 2 (Distorted) PLAY 2 TIMES
D|---------------------------------------------------------------------|
A|---------------------------------------------------------------------|
F|---------------------------------------------------------------------|
C|---------------------------------------------------------------------|
G|---------------------------------------------------------------------|
C|--0-1-0-3-0-10-7-0-11-8-0-7-0-8-7\3--0-1-0-3-0-10-7-0-11-8-0-7--1----|

Verse 1: Guitars 1 & 2
D|---------------------------------------------------------------------|
A|---------------------------------------------------------------------|
F|---------------------------------------------------------------------|
C|--0-0----------------------------------------------------------------|
G|--0-0----------------------------------------------------------------|
C|--0-0----------------------------------------------------------------|

Verse 1: Guitar 2 (Distorted)
D|---------------------------------------------------------------------|
A|---------------------------------------------------------------------|
F|---------------------------------------------------------------------|
C|--0--0---0--0---------------------8--8---8--8------------------------|
G|--0--0---0--0---------------------8--8---8--8------------------------|
C|--0--0---0--0---------------------8--8---8--8------------------------|
    pmpm   pmpm                     pmpm   pmpm

Verse 1: Guitar 2 (Distorted)
D|---------------------------------------------------------------------|
A|---------------------------------------------------------------------|
F|---------------------------------------------------------------------|
C|--3--3---3--3---------------------7--7---7--7------------------------|
G|--3--3---3--3---------------------7--7---7--7--------------8---------|
C|--3--3---3--3---------------------7--7---7--7-------7-8-10---10-8-7--|
    pmpm   pmpm                     pmpm   pmpm

Pre Chorus: Guitars 1 & 2 (Distorted)
D|---------------------------------------------------------------------|
A|---------------------------------------------------------------------|
F|---------------------------------------------------------------------|
C|--8-8-8-8-8-8-8-8--8-8-8-8-8-8-8-10-10-10-10-10-10-10-10--10-7-7-8-7-|
G|--8-8-8-8-8-8-8-8--8-8-8-8-8-8-8-10-10-10-10-10-10-10-10--10-7-7-8-7-|
C|--8-8-8-8-8-8-8-8--8-8-8-8-8-8-8-10-10-10-10-10-10-10-10--10-7-7-8-7-|
    pmpmpmpmpmpmpmpm pmpmpmpmpmpmpmpmpmpmpmpmpmpmpmpmpmpmpm

Chorus: Guitars 1 & 2 (Distorted) PLAY ENTIRE CHORUS 2 TIMES
D|---------------------------------------------------------------------|
A|---------------------------------------------------------------------|
F|---------------------------------------------------------------------|
C|--0--0---3-3-3-3-3-------2--------0--0--0---3-3-3-3-3-------2--------|
G|--0--0-------------5-3-5---5-3-0--0--0--0-------------5-3-5---5-3-0--|
C|--0--0----------------------------0--0--0----------------------------|

Chorus: Guitars 1 & 2 (Distorted)
D|---------------------------------------------------------------------|
A|---------------------------------------------------------------------|
F|---------------------------------------------------------------------|
C|--8-----8-----8-----8----8---8---10--------10--------10--10-7-7-8-7--|
G|--8-----8-----8-----8----8---8---10--------10--------10--10-7-7-8-7--|
C|--8-----8-----8-----8----8---8---10--------10--------10--10-7-7-8-7--|

Post Chorus: Guitar 1 (Distorted)
D|---------------------------------------------------------------------|
A|---------------------------------------------------------------------|
F|---------------------------------------------------------------------|
C|---------------------------------------------------------------------|
G|---------------------------------------------------------------------|
C|--0-1-0-3-0-10-7-0-11-8-0-7/13-13-13-13------------------------------|

Post Chorus: Guitars 1 & 2 (Distorted)
D|---------------------------------------------------------------------|
A|---------------------------------------------------------------------|
F|---------------------------------------------------------------------|
C|---------------------------------------------------------------------|
G|---------------------------------------------------------------------|
C|--0-1-0-3-0-10-7-0-11-8-0-7-0-8-7\3--0-1-0-3-0-10-7-0-11-8-0-7--1----|

Verse 2: Guitars 1 & 2
D|---------------------------------------------------------------------|
A|---------------------------------------------------------------------|
F|---------------------------------------------------------------------|
C|--0-0----------------------------------------------------------------|
G|--0-0----------------------------------------------------------------|
C|--0-0----------------------------------------------------------------|

Verse 1: Guitar 2 (Distorted)
D|---------------------------------------------------------------------|
A|---------------------------------------------------------------------|
F|---------------------------------------------------------------------|
C|--0--0---0--0---------------------8--8---8--8------------------------|
G|--0--0---0--0---------------------8--8---8--8------------------------|
C|--0--0---0--0---------------------8--8---8--8------------------------|
    pmpm   pmpm                     pmpm   pmpm

Verse 2: Guitar 2 (Distorted)
D|---------------------------------------------------------------------|
A|---------------------------------------------------------------------|
F|---------------------------------------------------------------------|
C|--3--3---3--3---------------------7--7---7--7------------------------|
G|--3--3---3--3---------------------7--7---7--7--------------8---------|
C|--3--3---3--3---------------------7--7---7--7-------7-8-10---10-8-7--|
    pmpm   pmpm                     pmpm   pmpm

Pre Chorus: Guitars 1 & 2 (Distorted)
D|---------------------------------------------------------------------|
A|---------------------------------------------------------------------|
F|---------------------------------------------------------------------|
C|--8-8-8-8-8-8-8-8--8-8-8-8-8-8-8-10-10-10-10-10-10-10-10--10-7-7-8-7-|
G|--8-8-8-8-8-8-8-8--8-8-8-8-8-8-8-10-10-10-10-10-10-10-10--10-7-7-8-7-|
C|--8-8-8-8-8-8-8-8--8-8-8-8-8-8-8-10-10-10-10-10-10-10-10--10-7-7-8-7-|
    pmpmpmpmpmpmpmpm pmpmpmpmpmpmpmpmpmpmpmpmpmpmpmpmpmpmpm

Chorus: Guitars 1 & 2 (Distorted) PLAY ENTIRE CHORUS 2 TIMES
D|---------------------------------------------------------------------|
A|---------------------------------------------------------------------|
F|---------------------------------------------------------------------|
C|--0--0---3-3-3-3-3-------2--------0--0--0---3-3-3-3-3-------2--------|
G|--0--0-------------5-3-5---5-3-0--0--0--0-------------5-3-5---5-3-0--|
C|--0--0----------------------------0--0--0----------------------------|

Chorus: Guitars 1 & 2 (Distorted)
D|---------------------------------------------------------------------|
A|---------------------------------------------------------------------|
F|---------------------------------------------------------------------|
C|--8-----8-----8-----8----8---8---10--------10--------10--10-7-7-8-7--|
G|--8-----8-----8-----8----8---8---10--------10--------10--10-7-7-8-7--|
C|--8-----8-----8-----8----8---8---10--------10--------10--10-7-7-8-7--|

Bridge: Guitar 1 (Distorted)
D|---------------------------------------------------------------------|
A|---------------------------------------------------------------------|
F|---------------------------------------------------------------------|
C|---------------------------------------------------------------------|
G|------3---------3--------------------3---------3---------------------|
C|--0-0---0---0-0---0--0--0-0-7----0-0---0---0-0---3-0-3-5-6-5-1-3-----|

Bridge: Guitars 1 & 2 (Distorted)
D|---------------------------------------------------------------------|
A|---------------------------------------------------------------------|
F|---------------------------------------------------------------------|
C|---------------------------------------------------------------------|
G|------3---------3--------------------3---------3---------------------|
C|--0-0---0---0-0---0--0--0-0-7----0-0---0---0-0---3-0-3-5-6-5-1-3-----|

Bridge: Guitars 1 & 2 (Distorted)
D|---------------------------------------------------------------------|
A|--4------------------------------3-----------------------------------|
F|--3------------------------------3-----------------------------------|
C|--1------------------------------1-----------------------------------|
G|--1------------------------------1---------------------666666666666--|
C|--1------------------------------------------------------------------|

Chorus: Guitars 1 & 2 (Distorted) PLAY ENTIRE CHORUS 2 TIMES
D|---------------------------------------------------------------------|
A|---------------------------------------------------------------------|
F|---------------------------------------------------------------------|
C|--0--0---3-3-3-3-3-------2--------0--0--0---3-3-3-3-3-------2--------|
G|--0--0-------------5-3-5---5-3-0--0--0--0-------------5-3-5---5-3-0--|
C|--0--0----------------------------0--0--0----------------------------|

Chorus: Guitars 1 & 2 (Distorted)
D|---------------------------------------------------------------------|
A|---------------------------------------------------------------------|
F|---------------------------------------------------------------------|
C|--8-----8-----8-----8----8---8---10--------10--------10--10-7-7-8-7--|
G|--8-----8-----8-----8----8---8---10--------10--------10--10-7-7-8-7--|
C|--8-----8-----8-----8----8---8---10--------10--------10--10-7-7-8-7--|

Outro: Guitars 1 & 2 (Distorted)
D|---------------------------------------------------------------------|
A|---------------------------------------------------------------------|
F|---------------------------------------------------------------------|
C|---------------------------------------------------------------------|
G|---------------------------------------------------------------------|
C|--0-1-0-3-0-7-8-0-11-8-0-7-10-0-7-8--0-1-0-3-0-7-8-0-11-8-0-7-10-7-8-|

Outro: Guitars 1 & 2 (Distorted)
D|---------------------------------------------------------------------|
A|---------------------------------------------------------------------|
F|---------------------------------------------------------------------|
C|---------------------------------------------------------------------|
G|---------------------------------------------------------------------|
C|--0-1-0-3-0-7-8-0-11-8-0-7-10-0-7-8--0-1-0-3-0-7-8-0-11-8-0-7-10-7-8-|

Outro End: Guitars 1 & 2
D|---------------------------------------------------------------------|
A|---------------------------------------------------------------------|
F|---------------------------------------------------------------------|
C|--0------------------------------------------------------------------|
G|--0------------------------------------------------------------------|
C|--0------------------------------------------------------------------|

Finished
            
Submit corrections

comments powered by Disqus
↑ Back to top | Breaking Benjamin Tabs for Hopeless. Lyrics for acoustic guitar and electric guitar. 1 Tablatures and chords are parodies/interpretations of the original songs. You may use it for private study, scholarship, research or language learning purposes only