>
 >
Hopeless

Hopeless Guitar Tabs

Breaking Benjamin - Hopeless chords, tabs, tablatures, lyrics

Guitar lessons | Add/correct | Request | Top 50 tabs Artists:  A B C D E F G H I J K L M N O P Q R S T U V W X Y Z 0-9

Hopeless Guitar Tabs – Breaking Benjamin

CD, Sheet music, Poster

Do you like Hopeless? Share with your friends now
Bass TabsChordsTabsTabs v2
MY TAKE ON HOPELESS...HOPEFULLY IT'S HALF DECENT

INTRO (0:08)
D|-----------------------------------|
A|-----------------------------------|
F|-----------------------------------|
C|-----------------------------------|
G|-0-1-0-7---------------------------|
C|-0-1-0-7-0-10-7-8-11-0-7-8-0-3/8-7-|

D|-----------------------------------|
A|-----------------------------------|
F|-----------------------------------|
C|-----------------------------------|
G|-0-1-0-7---------------------1-1-1-|
C|-0-1-0-7-0-10-7-8-11-0-7-8-0-1-1-1-|

D|-----------------------------------|
A|-----------------------------------|
F|-----------------------------------|
C|-----------------------------------|
G|-0-1-0-7---------------------------|
C|-0-1-0-7-0-10-7-8-11-0-7-8-0-3/8-7-|

D|-------------------------------|
A|-------------------------------|
F|-------------------------------|
C|-------------------------------|
G|-0-1-0-7---------------------3-|
C|-0-1-0-7-0-10-7-8-11-0-7-8-0-3-|

VERSE 1 
D|------------------------|
A|------------------------|
F|------------------------|
C|-0-0------------------8-|
G|-0-0------------------8-|
C|-0-0------------------8-|
         HERE I LAY FOREVER
         
   SORROR STILL REMAINS
         
   WILL THE WATER PULL ME DOWN
	   
   AND WASH IT ALL AWAY
D|----------------------------------------------------------|
A|----------------------------------------------------------|
F|----------------------------------------------------------|
C|-0-0--0-------------------8-8--8-------------------3-3--3-|
G|-0-0--0-------------------8-8--8-------------------3-3--3-|
C|-0-0--0-------------------8-8--8-------------------3-3--3-|
          COME AND TAKE ME OVER      WELCOME TO THE GAME



D|------------------------------------------------------|
A|------------------------------------------------------|
F|------------------------------------------------------|
C|--------------------------7-7--7----------------------|
G|--------------------------7-7--7-------------8-7------|
C|--------------------------7-7--7-------7-0-7-----7-10-|
   WILL THE CURRENT DRAG ME DOWN    AND CARRY ME AWAY

PRE-CHORUS 1
D|-----------------------------------------------------------------------|
A|-----------------------------------------------------------------------|
F|-----------------------------------------------------------------------|
C|---------------------------------------------------------0-7--7-8-7--7-|
G|-8-8-8-8-8-8-8-8-8-8-8-8-8-8-8-8-10-10-10-10-10-10-10-10-0-7--7-8-7--7-|
C|-8-8-8-8-8-8-8-8-8-8-8-8-8-8-8-8-10-10-10-10-10-10-10-10-0-7--7-8-7--7-|
   . . . . . . . . . . . . . . . .  .  .  .  .  .  .  .  .

CHORUS 1
D|-----------------------------------------------------------------------|
A|-----------------------------------------------------------------------|
F|-----------------------------------------------------------------------|
C|-0--0-------------------------------0-0-0------------------------------|
G|-0--0---8-8-8-8-8---------8-7-------0-0-0---8-8-8-8-8---------8-7------|
C|-0--0-------------12-10-0-----10-7--0-0-0-------------12-10-0-----10-7-|
   HOPELESS                           FILTHY

D|---------------------------------------------------------------|
A|---------------------------------------------------------------|
F|---------------------------------------------------------------|
C|-8------------------------------10---10--10--10--0-7--7-8-7--7-|
G|-8---FIGURE OUT STRUM PATTERN---10---10--10--10--0-7--7-8-7--7-|
C|-8------------------------------10---10--10--10--0-7--7-8-7--7-|

D|-----------------------------------------------------------------------|
A|-----------------------------------------------------------------------|
F|-----------------------------------------------------------------------|
C|-0--0-------------------------------0-0-0------------------------------|
G|-0--0---8-8-8-8-8---------8-7-------0-0-0---8-8-8-8-8---------8-7------|
C|-0--0-------------12-10-0-----10-7--0-0-0-------------12-10-0-----10-7-|
   WORTHLESS                          GUILTY

D|---------------------------------------------------------------|
A|---------------------------------------------------------------|
F|---------------------------------------------------------------|
C|-8------------------------------10---10--10--10--0-7--7-8-7--7-|
G|-8---FIGURE OUT STRUM PATTERN---10---10--10--10--0-7--7-8-7--7-|
C|-8------------------------------10---10--10--10--0-7--7-8-7--7-|

FILL
D|---------------------------------------|
A|---------------------------------------|
F|---------------------------------------|
C|---------------------------------------|
G|-0-1-0-7-------------------------------|
C|-0-1-0-7-0-10-7-8-11-0-7-8-13-13-13-13-|

INTRO AGAIN
D|-----------------------------------|
A|-----------------------------------|
F|-----------------------------------|
C|-----------------------------------|
G|-0-1-0-7---------------------------|
C|-0-1-0-7-0-10-7-8-11-0-7-8-0-3/8-7-|

D|-----------------------------------|
A|-----------------------------------|
F|-----------------------------------|
C|-----------------------------------|
G|-0-1-0-7---------------------1-1-1-|
C|-0-1-0-7-0-10-7-8-11-0-7-8-0-1-1-1-|

D|-----------------------------------|
A|-----------------------------------|
F|-----------------------------------|
C|-----------------------------------|
G|-0-1-0-7---------------------------|
C|-0-1-0-7-0-10-7-8-11-0-7-8-0-3/8-7-|

D|-------------------------------|
A|-------------------------------|
F|-------------------------------|
C|-------------------------------|
G|-0-1-0-7---------------------3-|
C|-0-1-0-7-0-10-7-8-11-0-7-8-0-3-|

VERSE 2 
D|------------------------|
A|------------------------|
F|------------------------|
C|-0-0------------------8-|
G|-0-0------------------8-|
C|-0-0------------------8-|
          SILENT I GO UNDER
         
   I AM NOT AFRAID
         
   I CAN SEE THE DAYLIGHT SHINE
	   
   AND SLOWLY DRIFT AWAY
D|----------------------------------------------------------|
A|----------------------------------------------------------|
F|----------------------------------------------------------|
C|-0-0--0-------------------8-8--8-------------------3-3--3-|
G|-0-0--0-------------------8-8--8-------------------3-3--3-|
C|-0-0--0-------------------8-8--8-------------------3-3--3-|
          SAFE TO SAY ITíS OVER      SINK INTO THE GRAVE



D|-----------------------------------------------------|
A|-----------------------------------------------------|
F|-----------------------------------------------------|
C|-------------------------7-7--7----------------------|
G|-------------------------7-7--7-------------8-7------|
C|-------------------------7-7--7-------7-0-7-----7-10-|
   THERE IS NOTHING LEFT INSIDE    BUT I AM WIDE AWAKE

PRE-CHORUS 2
D|-----------------------------------------------------------------------|
A|-----------------------------------------------------------------------|
F|-----------------------------------------------------------------------|
C|---------------------------------------------------------0-7--7-8-7--7-|
G|-8-8-8-8-8-8-8-8-8-8-8-8-8-8-8-8-10-10-10-10-10-10-10-10-0-7--7-8-7--7-|
C|-8-8-8-8-8-8-8-8-8-8-8-8-8-8-8-8-10-10-10-10-10-10-10-10-0-7--7-8-7--7-|
   . . . . . . . . . . . . . . . .  .  .  .  .  .  .  .  .

CHORUS 2
D|-----------------------------------------------------------------------|
A|-----------------------------------------------------------------------|
F|-----------------------------------------------------------------------|
C|-0--0-------------------------------0-0-0------------------------------|
G|-0--0---8-8-8-8-8---------8-7-------0-0-0---8-8-8-8-8---------8-7------|
C|-0--0-------------12-10-0-----10-7--0-0-0-------------12-10-0-----10-7-|
   HOPELESS                           FILTHY

D|---------------------------------------------------------------|
A|---------------------------------------------------------------|
F|---------------------------------------------------------------|
C|-8------------------------------10---10--10--10--0-7--7-8-7--7-|
G|-8---FIGURE OUT STRUM PATTERN---10---10--10--10--0-7--7-8-7--7-|
C|-8------------------------------10---10--10--10--0-7--7-8-7--7-|

D|-----------------------------------------------------------------------|
A|-----------------------------------------------------------------------|
F|-----------------------------------------------------------------------|
C|-0--0-------------------------------0-0-0------------------------------|
G|-0--0---8-8-8-8-8---------8-7-------0-0-0---8-8-8-8-8---------8-7------|
C|-0--0-------------12-10-0-----10-7--0-0-0-------------12-10-0-----10-7-|
   WORTHLESS                          GUILTY

D|---------------------------------------------------------------|
A|---------------------------------------------------------------|
F|---------------------------------------------------------------|
C|-8------------------------------10---10--10--10--0-7--7-8-7--7-|
G|-8---FIGURE OUT STRUM PATTERN---10---10--10--10--0-7--7-8-7--7-|
C|-8------------------------------10---10--10--10--0-7--7-8-7--7-|

BRIDGE 
D|----------------------------------------------------------------|
A|----------------------------------------------------------------|
F|----------------------------------------------------------------|
C|----------------------------------------------------------------|
G|-----3---------3------------0-------3---------3-----------------|
C|-0-1---1---1-0---1---0--0-1-----0-1---1---1-0---1-0-1-3-4-3-1-3-|

D|----------------------------------------------------------------|
A|----------------------------------------------------------------|
F|----------------------------------------------------------------|
C|----------------------------------------------------------------|
G|-----3---------3------------0-------3---------3-----------------|
C|-0-1---1---1-0---1---0--0-1-----0-1---1---1-0---1-0-1-3-4-3-1-0-|

D|------------------------------|
A|-4~---------------------------|
F|-3~-------3~------------------|
C|-1~-------3~------------------|
G|-1~-------1~-----666666666666-|
C|-1~---------------------------|

CHORUS 3
D|-----------------------------------------------------------------------|
A|-----------------------------------------------------------------------|
F|-----------------------------------------------------------------------|
C|-0--0-------------------------------0-0-0------------------------------|
G|-0--0---8-8-8-8-8---------8-7-------0-0-0---8-8-8-8-8---------8-7------|
C|-0--0-------------12-10-0-----10-7--0-0-0-------------12-10-0-----10-7-|
   HOPELESS                           FILTHY

D|---------------------------------------------------------------|
A|---------------------------------------------------------------|
F|---------------------------------------------------------------|
C|-8------------------------------10---10--10--10--0-7--7-8-7--7-|
G|-8---FIGURE OUT STRUM PATTERN---10---10--10--10--0-7--7-8-7--7-|
C|-8------------------------------10---10--10--10--0-7--7-8-7--7-|

D|-----------------------------------------------------------------------|
A|-----------------------------------------------------------------------|
F|-----------------------------------------------------------------------|
C|-0--0-------------------------------0-0-0------------------------------|
G|-0--0---8-8-8-8-8---------8-7-------0-0-0---8-8-8-8-8---------8-7------|
C|-0--0-------------12-10-0-----10-7--0-0-0-------------12-10-0-----10-7-|
   WORTHLESS                          GUILTY

D|---------------------------------------------------------------|
A|---------------------------------------------------------------|
F|---------------------------------------------------------------|
C|-8------------------------------10---10--10--10--0-7--7-8-7--7-|
G|-8---FIGURE OUT STRUM PATTERN---10---10--10--10--0-7--7-8-7--7-|
C|-8------------------------------10---10--10--10--0-7--7-8-7--7-|

OUTRO
D|------------------------------------|
A|------------------------------------|
F|------------------------------------|
C|------------------------------------|
G|-0-1-0-3----------------------------|
C|-0-1-0-3-0-10-7-0-11-8-0-7-10-0-5-3-|

D|------------------------------------|
A|------------------------------------|
F|------------------------------------|
C|------------------------------------|
G|-0-1-0-3----------------------------|
C|-0-1-0-3-0-10-7-0-11-8-0-7-10-0-5-3-|

-
D|------------------------------------|
A|------------------------------------|
F|------------------------------------|
C|------------------------------------|
G|-0-1-0-3----------------------------|
C|-0-1-0-3-0-10-7-0-11-8-0-7-10-0-5-3-|

D|------------------------------------|
A|------------------------------------|
F|------------------------------------|
C|------------------------------------|
G|-0-1-0-3----------------------------|
C|-0-1-0-3-0-10-7-0-11-8-0-7-10-0-5-3-|

D|------------------|
A|------------------|
F|------------------|
C|-0----------------|
G|-0óLET RING-------|
C|-0----------------|





Comments


Popular Breaking Benjamin tabs & chords
Outro Bass Tabs
Sugarcoat 2 Bass Tabs
Had Enough 2 Chords
Next To Nothing Chords
Water Drum Tabs
Dance With The Devil Intro Tabs
Diary Of Jane Intro Tabs
Medicate 2 Tabs
Skin 4 Tabs
What Lies Beneath Tabs


Song lyrics



↑ Back to top | Tablatures and chords are parodies/interpretations of the original songs. You may use it for private study, scholarship, research or language learning purposes only
© 2014 AZChords.com Contact us | Privacy policy | DMCA | Add/correct tabs | Request tabs | Top 50 tabs