» » »

Breaking Benjamin, Home Bass tabs (ver.2)

Artists:  A B C D E F G H I J K L M N O P Q R S T U V W X Y Z # 

Home Bass tabs (ver.2)

Breaking Benjamin Tabs
Rating:
0/5 (0 votes)
Home  lessons Tabs too difficult? Try these video lessons and learn fast
                (2)
Tuning: Db,Ab,Db,Gb

Intro
Gb--------|
Db--------|
Ab--------|
Db—01-----|

(8x)
Gb--------------------|
Db--------------------|
Ab--------------------|
Db--0-00-00-00-01-----|

Verse 12x
Gb---------------|
Db---------------|
Ab---------------|
Db--0-3-0-3-1----|

Pre-Chorus
Gb----------------------------------------------------|-------|
Db----------------------------------------------------|-------|
Ab--3-333-333-3--6-666-666-6--3-333-333-3--6-666-666--|-6865--|
Db----------------------------------------------------|-------|

Verse 16x

Pre-Chorus (without ending)

Chorus 2x
Gb--------------------------------------------------------|
Db--------------------------------------------------------|
Ab--------------------------------------------------------|
Db--8-888-888-8--5-555-555-5--3-333-333-3--1-111-111-1----|

Bridge 4x
Gb-----------------|
Db-----------------|
Ab-----------------|
Db--0-3-0-3-0-1----|

Verse 8x

Chorus 4x

Intro 3x

End
Ab---------------|
Db--0-0-0-0-0----|
            

comments powered by Disqus
↑ Back to top | Breaking Benjamin Bass for Home. Lyrics for acoustic guitar and electric guitar. Tablatures and chords are parodies/interpretations of the original songs. You may use it for private study, scholarship, research or language learning purposes only