» » »

Break My Fall Bass tabs (ver.2)

Artists:  A B C D E F G H I J K L M N O P Q R S T U V W X Y Z # 

Break My Fall Bass tabs (ver.2)

Breaking Benjamin
Rating:
0/5 (0 votes)

Hard to play? Try these video lessons and learn fast.
                "Break My Fall"

Intro
F|--------------------------------------------------------------------------------------|
C|--------------------------------------------------------------------------------------|
G|------0-----0--------------0-----0-------------0-------0------------0------0------0---|
C|-2-5----2-5----0-2-0--2-5----2-5----0-2-0--2-5----2-5----0-2-0--2-5----2-5----0-2---0-|

Verse
F|---------------------------------------|
C|---------------------------------------|
G|----0------0---------0------0------0---|
C|2-5----2-5------2-5----2-5----0-2----0-| x2

F|------------------------------------------|
C|------------------------------------------|
G|--------------------------------------0---|
C|-2-5-5-5-5-4-4-4-2-5-5--2-5-5-5-4-0-2---0-|

Chorus
F|--------------------------|
C|-5-7-5-7-5------5-4-------|
G|------------0-2-----5-2-5-|
C|--------------------------| x2

F|------------------------------|
C|------------------------------|
G|-3-3-3-3-3-3-3-3-0-0-0-0------|
C|--------------------------5-5-| x2

Intro 
Verse
Chorus
Bridge (no bass)
Chorus

Outro
F|-------------------------------------|
C|-------------------------------------|
G|-----0------0-------------0----------|
C|-2-5----2-5----0-2-0--2-5----2-5-7-7-| x3

F|------------------------|
C|------------------------|
G|-----0-----0-----0------|
C|-2-5----2----0-2---0-2~-|
            
Hard to play? Try these video lessons and learn fast. | Correct




comments powered by Disqus
↑ Back to top | Tablatures and chords are parodies/interpretations of the original songs. You may use it for private study, scholarship, research or language learning purposes only