» » »

Break My Fall Bass tabs (ver.1)

Artists:  A B C D E F G H I J K L M N O P Q R S T U V W X Y Z # 

Break My Fall Bass tabs (ver.1)

Breaking Benjamin
Rating:
5/5 (2 votes)

Hard to play? Try these video lessons and learn fast.
                Band- Breaking Benjamin
Song- Break My Fall

Intro:
G------------------------------------------------------------------------------------|
D------------------------------------------------------------------------------------|
A------------------------------------------------------------------------------------|
E-----0------0-------------0-----0-------------0-----0-------------0------0-----3----|
B-1-3----1-3---1-3-1---1-3---1-3---1-3-1---1-3---1-3---1-3-1---1-3----1-3---1-3---1~-|

Verse:
G-------------------------------------------|
D-------------------------------------------|
A-------------------------------------------|
E--------0------0~--------0-----0-----3-----|
B-()1-3----1-3-------1-3---1-3---1-3---1~---|
Note: Slide occurs second time of second verse(listen for it)

Verse 2:
G---------------------------------------------------------------------|
D---------------------------------------------------------------------|
A-----------------------------------------------2h3--2h3--2h3/53------|
E-----0----1-0-00-------0----1-0-00--0-----3--------------------------|
B-1-3---------------1-3----------------1-3---1~-----------------------|

Chorus:
G-------------------------------------------------------------------------------------------------------------|
D--5-7-5-7-5------5-4--------5-7-5-7-5-----5-4----------------------------------------------------------------|
A------------0--2-----5-2-5------------0-2-----5-2-5-3-3-3-3-3-3-3-3--------------3-3-3-3-3-3-3-3-------------|
E--------------------------------------------------------------------3-3-3-3----------------------3-3-3-3-----|
B----------------------------------------------------------------------------3-3--------------------------3-3-|
Note: for the final chorus, start on the second set of E-String, 3rd fret notes.  That 
the Shortened Chorus.

Chorus 2 End
G---------------------|
D--3-3-3-3-5-3-2-3----|
A---------------------|
E---------------------|
B------------------1~-|

Pre-Verse
G-----------------------------------------|
D-----------------------------------------|
A-----------------------------------------|
E-----0-----0------------0-----0-----3----|
B-1-3---1-3---1-3-1--1-3---1-3---1-3---1~-|

Bridge:
G--------------------------------------------------|
D-------------5---------------------5-------5-7-5~-|
A--7~--7----7---3~-3--3---7~-7--7-7---3~--3--------|
E-----------------------3--------------------------|
B--------------------------------------------------|

Outro:
G-------------------------------------------------------------------------|
D-------------------------------------------------------------------------|
A-------------------------------------------------------------------------|
E-----0------0-------------0-----1-1~------0-----0------------0---------3-|
B-1-3----1-3---1-3-1---1-3---1-3-------1-3---1-3---1-3-1--1-3-----1-3-1---|

G--------------------------------------------------------------------------------|
D--------------------------------------------------------------------------------|
A--------------------------------------------------------------------------------|
E-----0------0-------------0-----1-1~------0-----0------------0-------0-----3----|
B-1-3----1-3---1-3-1---1-3---1-3-------1-3---1-3---1-3-1--1-3-----1-3---1-3---1~-|

Song Order:
Into 1x
Verse 2x
Verse 2: 1x
Chorus: 1x
Pre-Verse: 1x
Verse: 2x
Verse 2: 1x
Chorus: 1x
Chorus 2 End: 1x
Bridge: 1x
Chorus(shortened): 1x
Outro: 1x
            
Hard to play? Try these video lessons and learn fast. | Correct




comments powered by Disqus
↑ Back to top | Tablatures and chords are parodies/interpretations of the original songs. You may use it for private study, scholarship, research or language learning purposes only