» » »

Breaking Benjamin, Breakdown Tabs (ver.4)

Artists:  A B C D E F G H I J K L M N O P Q R S T U V W X Y Z # 

Breakdown Tabs (ver.4)

Breaking Benjamin Tabs
 Rating:
4.6/5 (11 votes)
Breakdown lessons Tabs too difficult? Try these video lessons and learn fast
1
                -------------------------------------------------------------------------------
                             Breakdown - Breaking Benjamin
-------------------------------------------------------------------------------

Tuning: drop C  my first tab go easy
    intro: piano arr. for guitar
D|--------7-6-7-6--------------7-6-7-6-------------7-6-7-6---------------9---|
A|-----------------4-6-6-7-7------------4-6-6-7-7-----------4-6-6-7-7--------|
F|---------------------------------------------------------------------------|
C|---------------------------------------------------------------------------|
G|---------------------------------------------------------------------------|
C|---------------------------------------------------------------------------|
       MAIN RIFF W\DIST
D|---------------------------------------------------------------------------|
A|----------------------------------------------------------4----------------|
F|--------------------------------4--4----------------------3----------------|
C|-1--1------------6-5----1--1----2--2----------------------1----------------|
G|-1--1------6-6h8--------1--1----2--2---four-times--then---1----------------|
C|-1--1-------------------1--1----2--2----------------------1----------------|
           verse arr. for guitar
D ------7-6-7-6--------------------------------------------------------------|
A|---------------4---however many times--------------------------------------|
F|---------------------------------------------------------------------------|
C|----------------------------------------1-1-x-1-1-1-1----4-4-x-4-4-4-4-----|
G|----------------------------------------1-1-x-1-1-1-1----4-4-x-4-4-4-4-----|
C|----------------------------------------1-1-x-1-1-1-1----4-4-x-4-4-4-4-----


D ---------------------------------------------------------------------------|
A|---------------------------------------------------------------------------|
F|--------------------------------------------3---------3---------6--------6-|
C|---9-9-x-9-9-9-9--6-6-6-8-8-8---------1--1-----1-1-1------4--4------4-4-4--|
G|---9-9-x-9-9-9-9--6-6-6-8-8-8---------1--1-----1-1-1------4--4------4-4-4--|
C|---9-9-x-9-9-9-9--6-6-6-8-8-8---------1--1-----1-1-1------4--4------4-4-4--|

D|---------------------------------------------------------------------------|
A|---------------------------------------------------------------------------|
F|------8--------8--------8---------8------8---------------------------------|
C|-9--9----9-9-9-----6--6----6-6-6------8------------------------------------|
G|-9--9----9-9-9-----6--6----6-6-6------8------------------------------------|
C|-9--9----9-9-9-----6--6----6-6-6------8------------------------------------|
            CHORUS
D|---------------------------------------------------------------------------|
A|---------------------------------------------------------------------------|
F|---------------------------------------------------------------------------|
C|--4-4-4-4---1-1-1-1---0-0x0x0x0x0x0--1-2-3-4-------------1-2-3-------------|
G|--4-4-4-4---1-1-1-1---0-0x0x0x0x0x0--1-2-3-4--once-then--1-2-3back-to-riff- 
C|--4-4-4-4---1-1-1-1---0-0x0x0x0x0x0--1-2-3-4-------------1-2-3-------------|
         bridge
D|---------------------------------------------------------------------------|
A|---------------------------------------------------------------------------|
F|---------------------------------------------------------------------------|
C|-1-------11111111--2-1-2-4-2-1---------------------------------------------|
G|-1-hold--11111111--2-1-2-4-2-1---------------------------------------------|
C|-1-------11111111--2-1-2-4-2-1---------------------------------------------|
      END IT WITH THIS
D|---------------------------------------------------------------------------|
A|---------------------------------------------------------------------------|
F|---------------------------------------------------------------------------|
C|---1-7-6-4-6-4-1-----------------------------------------------------------|
G|---1-7-6-4-6-4-1-----------------------------------------------------------|
C|---1-7-6-4-6-4-1-----------------------------------------------------------|


| /  slide up
| \  slide down
| h  hammer-on
| p  pull-off
| ~  vibrato
| +  harmonic
| x  Mute note
===============================================================================
            
Submit corrections

comments powered by Disqus
↑ Back to top | Breaking Benjamin Tabs for Breakdown. Lyrics for acoustic guitar and electric guitar. 1 Tablatures and chords are parodies/interpretations of the original songs. You may use it for private study, scholarship, research or language learning purposes only