» » »

Breaking Benjamin, Breakdown Bass tabs (ver.1)

Artists:  A B C D E F G H I J K L M N O P Q R S T U V W X Y Z # 

Breakdown Bass tabs (ver.1)

Breaking Benjamin Tabs
 Rating:
4/5 (4 votes)
Breakdown lessons Tabs too difficult? Try these video lessons and learn fast
1
                p=pull off
s=slap or pop
h=hammer
\\=slide down
/=slide up
*=hold
~=let ring

Intro  X4
|-------------------------------|
|-------------------------------|
|--------------s10\\9------6-6--|
|-0--0-12p10p0--------0-0-------|

Verse X3 (Follow the hits of the toms and bass drum)
|----------------------------------------------------------------|
|----------------------------------------------------------------|
|----------------------------------------------------------------|
|-0-0-0-0-0-0-0-0-3-3-3-3-3-3-3-3-8-8-8-8-8-8-8-8-5-5-5-5-8-8-8-8|

Pre Chorus
|------------------------------------------------------|
|------------------------------------------------------|
|------------------------------------------------------|
|-0-0--0-0-0--0-3-3--3-3-3--3-8-8--8-8-8--8-5-5--5-8-8-|

|--------------------------------------------------------|
|--------------------------------------------------------|
|--------------------------------------------------------|
|-0-0--0-0-0--0-3-3--3-3-3--3-8-8--8-8-8--5-5-5-5-8-8-8-8|

Chorus
|---------------------------------------------------------------|
|---------------------------------------------------------------|
|-----------------5-5-5-5-5-5-5-5-4-4-4-4-4-4-4-4-6-6-6-6-------|
|-3-3-3-3-3-3-3-3----------------------------------------1p0-1h2|

|--------------------------------------------------------------|
|--------------------------------------------------------------|
|-----------------5-5-5-5-5-5-5-5-4-4-4*-4*-4*-4-6-6-6-6-------|
|-3-3-3-3-3-3-3-3---------------------------------------1p0-1h2|

Post Chorus
|----------------------------|----------------------------|
|----------------------------|----------------------------|
|-------------s10\\9------6-6|-------------s10\\9---------|
|-0--0-12p10p0-------0--0----|0--0-12p10p0--------0--0----|

Verse X3 (follow the toms and bass drum again)
|----------------------------------------------------------------|
|----------------------------------------------------------------|
|----------------------------------------------------------------|
|-0-0-0-0-0-0-0-0-3-3-3-3-3-3-3-3-8-8-8-8-8-8-8-8-5-5-5-5-8-8-8-8|

Pre Chorus
|-----------------------------------------------------|
|-----------------------------------------------------|
|-----------------------------------------------------|
|-0-0--0-0-0--0-3-3--3-3-3--3-8-8--8-8-8--8-5-5--5-8-8|

   (hold notes longer this time)
|--------------------------------------------------------|
|--------------------------------------------------------|
|--------------------------------------------------------|
|-0-0--0-0-0--0-3-3--3-3-3--3-8-8--8-8-8--5-5-5-5-8-8-8-8|

Chorus
|---------------------------------------------------------------|
|---------------------------------------------------------------|
|-----------------5-5-5-5-5-5-5-5-4-4-4-4-4-4-4-4-6-6-6-6-------|
|-3-3-3-3-3-3-3-3----------------------------------------1p0-1h2|

|--------------------------------------------------------------|
|--------------------------------------------------------------|
|-----------------5-5-5-5-5-5-5-5-4-4-4*-4*-4*-4-6-6-6-6-------|
|-3-3-3-3-3-3-3-3---------------------------------------1p0-1h2|


Bridge (i have no idea what hes doing,so heres my guess)
|--------------------------------|
|--------------------------------|
|------s6-s6/12-s10-s8--s12-s10-8|
|-0--0---------------------------|

 do this part 4 times
|-----------------------------|
|-----------------------------|
|-----------------------------|
|-0-0--0-0-0--0-0-0--0-1p0-1h3|

(then play chorus X4)

Outro
|------------------------------|-----------------------------------------|
|------------------------------|-----------------------------------------|
|---------------s10\\9------6-6|--------------s10\\9---------------------|
|-0--0--12p10p0--------0--0----|0--0--12p10p0--------0-3-7-6-5-3-0-------|



this is my first tab but besides the bridge its pretty much correct
            
Submit corrections

comments powered by Disqus
↑ Back to top | Breaking Benjamin Bass for Breakdown. Lyrics for acoustic guitar and electric guitar. 1 Tablatures and chords are parodies/interpretations of the original songs. You may use it for private study, scholarship, research or language learning purposes only