» » »

Breaking Benjamin, Believe Tabs (ver.2)

Artists:  A B C D E F G H I J K L M N O P Q R S T U V W X Y Z # 

Believe Tabs (ver.2)

Breaking Benjamin Tabs
 Rating:
4/5 (14 votes)
Believe lessons Tabs too difficult? Try these video lessons and learn fast
                Band- Breaking Benjamin
Song- Believe

Tuning: Guitar 1  Db, Ab, Db, Gb, Bb, Eb 
        Guitar 2  C, G, C, F, A, D
Notation: 
(h) – hammer on 
(p) – pull off  
(b) – bend 
(\\) – slide up
(/) – slide down 
(~) – vibrato 
(P.M.) – palm mute 
(x) – mute 
(*) – harmonic 

Intro     guitar 1 and guitar 2                                   
|-------------------------------------------------------------------------|
|-------------------------------------------------------------------------|
|-------------------------------------------------------------------------|
|--4------------------4--2------------------4--2--------------------------|
|-------------------------------------------------------------------------|
|-----4--2h4-4-4-4-2--------4--2h4-4-4-4-2--------4--2h4-4-4-4-2----------| 

|-------------------------------------------------------------------------|
|-------------------------------------------------------------------------|
|-------------------------------------------------------------------------|
|--4--2-------------------------------------4--2--------------------------|
|-------------------------------------------------------------------------| 
|--------4--2h4-4-4-4-2-----4--2h4-4-4-4-2--------4--2h4-4-4-4-2----------|

|-------------------------------------------------------------------------|
|-------------------------------------------------------------------------|
|-------------------------------------------------------------------------|
|--4--2------------------4--2------------------4--2-----------------------|
|-------------------------------------------------------------------------|
|--------4--2h4-4-4-4-2--------4--2h4-4-4-4-2--------4--2h4-4-4-4-2-------|

Verse     guitar 1
|-------------------------------------------------------------------------|
|-------------------------------------------------------------------------|
|-------------------------------------------------------------------------|
|--2--4---2--2-4---2--2-4---2-2--3-3----2--4---2--2-4---2--2-4---2--3-----|
|--2--4---2--2-4---2--2-4---2-2--3-3----2--4---2--2-4---2--2-4---2--3-----|
|--2--4---2--2-4---2--2-4---2-2--3-3----2--4---2--2-4---2--2-4---2--3-----|
  P.M..   .  . .   .  . .   . .  . .    .  .   .  . .   .  . .

|-------------------------------------------------------------------------|
|-------------------------------------------------------------------------|
|-------------------------------------------------------------------------|
|--2--4---2--2-4---2--2-4---2-2--3-3----2--4---2--2-4---2--2-4---2--3-----|
|--2--4---2--2-4---2--2-4---2-2--3-3----2--4---2--2-4---2--2-4---2--3-----|
|--2--4---2--2-4---2--2-4---2-2--3-3----2--4---2--2-4---2--2-4---2--3-----|

|-------------------------------------------------------------------------|
|-------------------------------------------------------------------------|
|-------------------------------------------------------------------------|
|--2--4---2--2-4---2--2-4---2-2--3-3----2--4---2--2-4---2--2-4---2--3-----|
|--2--4---2--2-4---2--2-4---2-2--3-3----2--4---2--2-4---2--2-4---2--3-----|
|--2--4---2--2-4---2--2-4---2-2--3-3----2--4---2--2-4---2--2-4---2--3-----|

Chorus  2x     guitar 1 and guitar 2 
|-------------------------------------------------------------------------|
|-------------------------------------------------------------------------|
|-------------------------------------------------------------------------|
|--4--2--5--4--2--4--2--4--5--4--7----4--2--5--4--2--4--2--4--7--7--------|
|--4--2--5--4--2--4--2--4--5--4--7----4--2--5--4--2--4--2--4--7--7--------|
|--4--2--5--4--2--4--2--4--5--4--7----4--2--5--4--2--4--2--4--7--7--------| 

Verse     guitar 1
|-------------------------------------------------------------------------|
|-------------------------------------------------------------------------|
|-------------------------------------------------------------------------|
|--2--4---2--2-4---2--2-4---2-2--4-2--------------------------------------|
|--2--4---2--2-4---2--2-4---2-2------4p3p2--------------------------------|
|--2--4---2--2-4---2--2-4---2-2------------5p4----------------------------|
  P.M..   .  . .   .  . .   . .

|-------------------------------------------------------------------------|
|-------------------------------------------------------------------------|       
|-------------------------------------------------------------------------|
|--2--4---2--2-4---2--2-4---2-2--3-3----2--4---2--2-4---2--2-4---2--3-----|
|--2--4---2--2-4---2--2-4---2-2--3-3----2--4---2--2-4---2--2-4---2--3-----|
|--2--4---2--2-4---2--2-4---2-2--3-3----2--4---2--2-4---2--2-4---2--3-----|
  P.M..   .  . .   .  . .   . .  . .    .  .   .  . .   .  . .

|-------------------------------------------------------------------------|
|-------------------------------------------------------------------------|
|-------------------------------------------------------------------------|
|--2--4---2--2-4---2--2-4---2-2--3-3----2--4---2--2-4---2--2-4---2--3-----|
|--2--4---2--2-4---2--2-4---2-2--3-3----2--4---2--2-4---2--2-4---2--3-----|
|--2--4---2--2-4---2--2-4---2-2--3-3----2--4---2--2-4---2--2-4---2--3-----|

|-------------------------------------------------------------------------|
|-------------------------------------------------------------------------|
|-------------------------------------------------------------------------|
|--2--4---2--2-4---2--2-4---2-2--3-3----2--4---2--2-4---2--2-4---2--3-----|
|--2--4---2--2-4---2--2-4---2-2--3-3----2--4---2--2-4---2--2-4---2--3-----|
|--2--4---2--2-4---2--2-4---2-2--3-3----2--4---2--2-4---2--2-4---2--3-----|

Chorus  2x     guitar 1 and guitar 2 
|-------------------------------------------------------------------------|
|-------------------------------------------------------------------------|
|-------------------------------------------------------------------------|
|--4--2--5--4--2--4--2--4--5--4--7----4--2--5--4--2--4--2--4--7--7--------|
|--4--2--5--4--2--4--2--4--5--4--7----4--2--5--4--2--4--2--4--7--7--------|
|--4--2--5--4--2--4--2--4--5--4--7----4--2--5--4--2--4--2--4--7--7--------|  

Bridge (with effects)  4x     guitar 1 and guitar 2 
|-------------------------------------------------------------------------|
|-------------------------------------------------------------------------|
|-------------------------------------------------------------------------|
|--2----4----5----7-------------------------------------------------------|
|--2----4----5----7-------------------------------------------------------|
|--2----4----5----7-------------------------------------------------------| 

Interlude  2x 
|-------------------------------------------------------------------------|
|-------------------------------------------------------------------------|
|-------------------------------------------------------------------------|
|-------------------------------------------------------------------------|
|--4--2--5--4--2--4--2--4--5--4--7----4--2--5--4--2--4--2--4--7--7--------|
|--4--2--5--4--2--4--2--4--5--4--7----4--2--5--4--2--4--2--4--7--7--------| 
 P.M. .  .  .  .  .  .  .  .  .  .    .  .  .  .  .  .  .  .  .  .  

Chorus  2x     guitar 1 and guitar 2 
|-------------------------------------------------------------------------|
|-------------------------------------------------------------------------|
|-------------------------------------------------------------------------|
|--4--2--5--4--2--4--2--4--5--4--7----4--2--5--4--2--4--2--4--7--7--------|
|--4--2--5--4--2--4--2--4--5--4--7----4--2--5--4--2--4--2--4--7--7--------|
|--4--2--5--4--2--4--2--4--5--4--7----4--2--5--4--2--4--2--4--7--7--------|  

Chorus  2    guitar 2   plays the chorus again when guitar 1 does the bends
|-------------------------------------------------------------------------|
|-------------------------------------------------------------------------|
|-------------------------------------------------------------------------|
|--4--2--5--4--2--4--2--4--5--4--7----4--2--5--4--2--4--2--4--7--7--------|
|--4--2--5--4--2--4--2--4--5--4--7----4--2--5--4--2--4--2--4--7--7--------|
|--4--2--5--4--2--4--2--4--5--4--7----4--2--5--4--2--4--2--4--7--7--------|  

Outro     guitar 1  
|--15b---------15b---------16b---------12b-12b-12b-12b-12b-12b---12b--12b-|
|--15b---------15b---------16b---------15b-16b-15b-16b-15b-16b---15b--16b-|
|-------------------------------------------------------------------------|
|-------------------------------------------------------------------------|
|-------------------------------------------------------------------------|
|-------------------------------------------------------------------------| 

Intro     guitar 1 and guitar 2
|-------------------------------------------------------------------------|
|-------------------------------------------------------------------------|
|-------------------------------------------------------------------------|
|--4------------------4--2------------------4--2--------------------------|
|-------------------------------------------------------------------------|
|-----4--2h4-4-4-4-2--------4--2h4-4-4-4-2--------4--2h4-4-4-4-2----------| 

Ending     guitar 1 and guitar 2 
|-------------------------------------------------------------------------|
|-------------------------------------------------------------------------|
|-------------------------------------------------------------------------|
|--4----2----4------------------------------------------------------------|
|--4----2----4------------------------------------------------------------|
|--4----2----4------------------------------------------------------------|
            
Submit corrections

comments powered by Disqus
↑ Back to top | Breaking Benjamin Tabs for Believe. Lyrics for acoustic guitar and electric guitar. Tablatures and chords are parodies/interpretations of the original songs. You may use it for private study, scholarship, research or language learning purposes only