>
 >
Believe

Believe Guitar Tabs

Breaking Benjamin - Believe chords, tabs, tablatures, lyrics

Guitar lessons | Add/correct | Request | Top 50 tabs Artists:  A B C D E F G H I J K L M N O P Q R S T U V W X Y Z 0-9

Believe Guitar Tabs – Breaking Benjamin

CD, Sheet music, Poster

Do you like Believe? Share with your friends now
TabsTabs v2Tabs v3Tabs v4

Tuning: Drop C (C G C F A D)

-The other Believe tab was close but off quite a bit-
-When playing the intro, try and bar CGC strings on the 
2nd and 4th frets so the E note on the 4th string holds while
playing the E on the 6th string (Basically have the 2nd fret barred
at all times, and just barring the 4th every time you play a 4 (E note)-

Intro:

Guitar 1 + 2:
D|------------------------------------|
A|------------------------------------|
F|------------------------------------|
C|-4---------------2-4--------------2-|
G|------------------------------------|
C|---4-44-4-4-4-2------4-44-4-4-4-2---|
  [Bar 4th Fret][2nd][Bar 4th Fret][2nd]
   * * ** * * * *  * * * ** * * * * *

D|-----------------------------------|
A|-----------------------------------|
F|-----------------------------------| X2
C|-4---------------2-4---------------|
G|-----------------------------------|
C|---4-44-4-4-4-2------4-44-4-4-4-2--|

D|----------------------------------------------------|
A|-P--------------------------------------------------|
F|-A--------------------------------------------------|
C|-U---------------2-4--------------4-------------2-4-|
G|-S--------------------------------------------------|
C|-E--4-44-4-4-4-2-----4-44-4-4-4-2---4-44-4-4-4------|

Verse:

Guitar 1:
D|-------------------------------------|
A|-------------------------------------|
F|-------------------------------------|
C|-2-4--2-2-2-4--2-2-2-4--2-2-2-4--5-4-|
G|-2-4--2-2-2-4--2-2-2-4--2-2-2-4--5-4-|
C|-2-4--2-2-2-4--2-2-2-4--2-2-2-4--5-4-|
   * *  * * * *  * * * *  * * * *  * * 
D|-------------------------------|
A|-------------------------------|
F|-------------------------------|
C|-2-4--2-2-2-4--2-2-2-4--XX2--5-|
G|-2-4--2-2-2-4--2-2-2-4--XX2--5-|
C|-2-4--2-2-2-4--2-2-2-4--XX2--5-|
   * *  * * * *  * * * *  
Guitar 1 + 2:
D|-------------------------------------|  <-* 
A|-------------------------------------|    | 
F|-------------------------------------|    |
C|-2-4--2-2-2-4--2-2-2-4--2-2-2-4--5-4-|    |
G|-2-4--2-2-2-4--2-2-2-4--2-2-2-4--5-4-|    |
C|-2-4--2-2-2-4--2-2-2-4--2-2-2-4--5-4-|    |  
                                            |-- X2
D|-------------------------------|          |
A|-------------------------------|          |
F|-------------------------------|          |
C|-2-4--2-2-2-4--2-2-2-4--XX2--5-|          |
G|-2-4--2-2-2-4--2-2-2-4--XX2--5-|          |
C|-2-4--2-2-2-4--2-2-2-4--XX2--5-|        <-*

Chorus: 

Guitar 1 + 2:
D|--------------------------------------------|
A|--------------------------------------------|
F|--------------------------------------------|
C|-4-2-5-4-2-4-2-4-5-4-7--4-2-5-4-2-4-2-4-7-7-| X2
G|-4-2-5-4-2-4-2-4-5-4-7--4-2-5-4-2-4-2-4-7-7-|
C|-4-2-5-4-2-4-2-4-5-4-7--4-2-5-4-2-4-2-4-7-7-|

Post Chorus:

Guitar 1:
D|------------------------------------------|
A|------------------------------------------|
F|------------------------------------------|
C|-2-4--2-2-2-4--2-2-2-4--XX-4-2------------|
G|-2-4--2-2-2-4--2-2-2-4--XX------4-3-2-----|
C|-2-4--2-2-2-4--2-2-2-4--XX------------5-4-|

Back to Verse (Same except Guitar 2 adds this at the last part)

Guitar 2 (w/ Tremolo)
D|--------------------------|
A|--------------------------|
F|--------------------------|
C|-4------------------------|
G|------------------9-------|
C|--------------------------|

Chorus (Guitar 2 plays this during 2nd play of chorus)

Guitar 2:
D|-------------------------------|
A|-------------------------------|
F|-11------11b-11--------13b-13b-|
C|-------------------------------|
G|-------------------------------|
C|-------------------------------|

Bridge:

Guitar 1 and 2:
D|---------------------------------------------------|
A|---------------------------------------------------|
F|---------------------------------------------------|
C|-2--4--5--7-2--4--5--7-2-2-4-4-5-5-7-2-2-4-4-5-5-2-|
G|-2--4--5--7-2--4--5--7-2---4---5---7-2---4---5---2-|
C|-2--4--5--7-2--4--5--7-2---4---5---7-2---4---5---2-|

D|--------------------------------------------|
A|--------------------------------------------|
F|--------------------------------------------|
C|--------------------------------------------| X2
G|-4-2-5-4-2-4-2-4-5-4-7--4-2-5-4-2-4-2-4-7-7-|
C|-4-2-5-4-2-4-2-4-5-4-7--4-2-5-4-2-4-2-4-7-7-|
   * * * * * * * * * * *  * * * * * * * * * * 

Chorus

Post Chorus:

Guitar 1:
D|--------------------------------------------|
A|--------------------------------------------|
F|--------------------------------------------|
C|-4-2-5-4-2-4-2-4-5-4-7--4-2-5-4-2-4-2-4-7-7-| X2
G|-4-2-5-4-2-4-2-4-5-4-7--4-2-5-4-2-4-2-4-7-7-|
C|-4-2-5-4-2-4-2-4-5-4-7--4-2-5-4-2-4-2-4-7-7-|

Guitar 2:
D|------------------14------14b-14b-14b-14b-14b-14b-14b-14-|
A|---------------------------------------------------------|
F|-11-----11-----11----------------------------------------|
C|---------------------------------------------------------|
G|---------------------------------------------------------|
C|---------------------------------------------------------|

Outro:

Guitar 1 and 2:
D|-----------------------------------|
A|-----------------------------------|
F|-----------------------------------| 
C|-4---------------2-4---------------|
G|-----------------------------------|
C|---4-44-4-4-4-2------4-44-4-4-4-2--|

D|--------------------------|
A|--------------------------|
F|--------------------------|
C|-4----------------4-2-4/--|
G|------------------4-2-4/--|
C|---4-44-4-4-4-2-4-4-2-4/--|

Legend: / = slide up to         + = Let ring    
        \ = slide down to       b = bend string
        r = release bend        * = palm mute
        h = hammer on           p = pull off
        X = scratch





Comments


Popular Breaking Benjamin tabs & chords
Breath 2 Bass Tabs
Breath 4 Bass Tabs
Sooner Or Later Bass Tabs
Here We Are 1 Chords
Lie To Me 1 Chords
Always Tabs
Diary Of Jane 3 Tabs
No Games Tabs
No Games 1 Tabs
Rain 1 Tabs


Song lyrics



↑ Back to top | Tablatures and chords are parodies/interpretations of the original songs. You may use it for private study, scholarship, research or language learning purposes only
© 2014 AZChords.com Contact us | Privacy policy | DMCA | Add/correct tabs | Request tabs | Top 50 tabs