» » »

Breaking Benjamin, Away Bass tabs (ver.3)

Artists:  A B C D E F G H I J K L M N O P Q R S T U V W X Y Z # 

Away Bass tabs (ver.3)

Breaking Benjamin Tabs
Rating:
0/5 (0 votes)
Away lessons Tabs too difficult? Try these video lessons and learn fast
                Intro
G------------------------------------------------]--
D------------------------------------------------]--------
A---------------------------2---2----------------]------
E---2---2---------------------------------------2]----
B-4---4---4-2-4-2-4-2-4-2-4---4---4-2-4-2-4-2-4--]--                       

Verse (Fig 1)
G------------------------------------------------]--
D------------------------------------------------]--------
A---------------------------2---2-------4---4----]------
E---2---2---------------------------------------2]----
B-4---4---4-2-4-2-4-2-4-2-4---4---4-2-4---4---4--]--

(Fig 2)
G------------------------------------------------------]--
D------------------------------------------------------]--------
A------------------------------------------------------]------
E-----------------------------------------------1-1-1-1]----
B-4-4--4-4--4-2-4-4--4-4--4-2-4-4--4-4--4-2-4-4--------]--
Chorous 
Fig 1 (w/o run-ups)
G-------------------------]--
D-------------------------]--------
A-2-2-2-2-2------4---4---2]------
E------------2-2---2---2--]----
B-------------------------]--

Fig 2 (this is what the 1st run up looks like)
G----------------------------]--
D----------------------------]--------
A-2-2--/8-9-8-------4---4---2]------
E-------------9-2-2---2---2--]----
B----------------------------]--

Fig 3 (2nd run up)
G--------------------------]--
D--------------------------]--------
A-2-2-/11-9-8-9P8-----8---9]------
E-----------------9-9---9--]----
B--------------------------]--

Bridge Fig 1
G-------------------------------]--
D-------------------------------]--------
A-------------------------------]------
E---------2--------------2---2--]----
B-2h4-2h4---2-4--2h4-2h4---2---2]--

Fig 2
G-------------------------------]--
D-------------------------------]--------
A-------------------------------]------
E---------2--------------2---2-4]----
B-2h4-2h4---2-4--2h4-2h4---2----]--

Outro
G----------------]--
D----------------]--------
A-------2--------]------
E---2-----2-0----]----
B-4---2-------4h2]--
Order:
intro x2 
Verse: Fig 1 x2, Fig 2 x1
Chorous: Fig 1 x2, Fig 2 x1, Fig 1 x1
Verse: Fig 1 x2, Fig 2 x1
Chorous: Fig 2 x4
Bridge: Fig 1, Fig 2, Fig 1
Chorous: Fig 2 x3, Fig 3 x1
Outro x4
            
Submit corrections

comments powered by Disqus
↑ Back to top | Breaking Benjamin Bass for Away. Lyrics for acoustic guitar and electric guitar. Tablatures and chords are parodies/interpretations of the original songs. You may use it for private study, scholarship, research or language learning purposes only