» » »

Breaking Benjamin, Away Bass tabs (ver.1)

Artists:  A B C D E F G H I J K L M N O P Q R S T U V W X Y Z # 

Away Bass tabs (ver.1)

Breaking Benjamin Tabs
 Rating:
4/5 (7 votes)
Away lessons Tabs too difficult? Try these video lessons and learn fast
                -------------------------------------------------------------------------------
-------------------------------------------------------------------------------


Tuning: Standard!

Contrary to popular belief, this is not "dropped C."  It is half-tuned, but sounds
perfectly fine standard.  Enjoy!

INTRO
G|---------------------------------------------------------------------------|
D|--11-11-11--6-6-6-----------6-6-6------------------------------------------|  Each 3 Times
A|--------------------9-9-9--------------------------------------------------|
E|-6--6--6---6-6-6---6-6-6---6-6-6-------------------------------------------|

VERSE
G|---------------------------------------------------------------------------|
D|-----------------------9--9--9--11-11-11-----------------------------------|
A|-69-69-69-64-64-64-64-6--6--6--6--6--6-------------------------------------|
E|---------------------------------------------------------------------------|

G|---------------------------------------------------------------------------|
D|-----------------------------11-11-11--------------------------------------|
A|-66-66-64-66-66-64-66-66-64-6--6--6----------------------------------------|
E|---------------------------------------------------------------------------|

CHORUS
G|---------------------------------------------------------------------------|
D|---------------------------------------------------------------------------|  2 Times
A|-2/////898-4---4-1-2-----4-2-----------------------------------------------|
E|-------------2-------2-1---------------------------------------------------|

BRIDGE
G|---------------------------------------------------------------------------|
D|----4----------4--4--------4----------4--4-6------4----------4--4-3--------|
A|-646--4-6---646-4---4---646--4-6---646-4-------646--4-6---646--4-----------|
E|---------------------------------------------------------------------------|

OUTRO
G|---------------------------------------------------------------------------|
D|-------------9-------------------------------------------------------------| 4 Times
A|-666-999-666---999777666---------------------------------------------------|
E|---------------------------------------------------------------------------|



| /  slide up
| \  slide down
| h  hammer-on
| p  pull-off
| ~  vibrato
| +  harmonic
| x  Mute note
===============================================================================
            
Submit corrections

comments powered by Disqus
↑ Back to top | Breaking Benjamin Bass for Away. Lyrics for acoustic guitar and electric guitar. Tablatures and chords are parodies/interpretations of the original songs. You may use it for private study, scholarship, research or language learning purposes only