» » »

Breaking Benjamin, Away Tabs (ver.1)

Artists:  A B C D E F G H I J K L M N O P Q R S T U V W X Y Z # 

Away Tabs (ver.1)

Breaking Benjamin Tabs
Rating:
5/5 (5 votes)
Away lessons Tabs too difficult? Try these video lessons and learn fast
                Song Title: Away
GUITAR 1: Ben Burnley(Rhythm)
GUITAR 2: Aaron Fink(Lead)

Tuning: C# or Db:  ^^this is tab is 100% percent correct, with every little
                     detail tabbed.^^
Low:  C#
      G#
      C#
      F#
      A#
High: D#


INTRO: (GUITAR 1 Play 2X) (GUITAR 2 Play 1X)
|--------------------------------------------------------------|
|--------------------------------------------------------------|
|--------------------------------------------------------------|
|--222-555-222-555-2-0-222-----222-----2-0-222-----222-----2-0-|
|--222-----222-----2-0-222-555-222-555-2-0-222-333-222-333-2-0-|
|--222-----222-----2-0-222-----222-----2-0-222-----222-----2-0-|

Intro Cont.
|----------------------|
|----------------------|
|----------------------|
|--222-----222-----2-0-|
|--222-555-222-555-2-0-|
|--222-----222-----2-0-|

GUITAR 2 plays this lead the second time the intro is played,
and some flange and just a little reverb are used:
|---------------------------------|
|---------------------------------|
|--7/9-9b9~~~9b9~~~9b9~~~9b9-9/7--|
|---------------------------------|
|---------------------------------|
|---------------------------------|

VERSE: On the album version, nothing can be heard while Ben is singing, but when they 
it live this is what they play: GUITAR 1
|-----------------------------------------------------|
|-----------------------------------------------------|
|------------------------------7---7--------9---9-----|  2X
|--2-5-2-5-2-0--2-0-2-0-2-0--0-7-0-7-2-0--0-9-0-9-2-0-|
|--2-5-2-5-2-0--2-0-2-0-2-0--0-5-0-5-2-0--0-7-0-7-2-0-|
|--2-5-2-5-2-0--2-0-2-0-2-0--0---0---2-0--0---0---2-0-|
   . . . . . .  . . . . . .  .   .   . .  .   .   . .
GUITAR 2: Plays nothing on the first time
|------------|
|----10b10b--|
|------------|
|------------|
|------------|
|------------|

Then GUITAR 1 plays this:
|-----------------------------------------------------------|
|-----------------------------------------------------------|
|-----------------------------------------------------------|
|-----555---555-2-0-----------------2-0-----------------2-0-|
|--222---222----2-0-222-555-222-555-2-0-222-333-222-333-2-0-|
|--222---222----2-0-222-----222-----2-0-222-----222-----2-0-|
   ...   ...        ...     ...         ...     ...
|----------------------|
|----------------------|
|----------------------|
|--222-555-222-555-2-0-|
|--222-----222-----2-0-|
|--222-----222-----2-0-|

CHORUS: GUITARS 1 and 2; Figure out strumming, too complicated for tabbing
|------------------|
|------------------|
|--9---7---5-------|
|--9-9-7-5-5-5-4-2-| X2
|--7-9-5-5-3-5-4-2-|
|----9---5---5-4-2-|

INTRO: This time, play only once with and do the lead part.

VERSE:
The same for GUITAR 1
This time for GUITAR 2's lead, play this:
|-----------|
|--9/10b10b-|
|-----------|
|-----------|
|-----------|
|-----------|

CHORUS: Same as 1st time.

BRIDGE: GUITAR 1
2X: This is really hard to tab...so if this doenst sound right at first, keep playing it 
it starts to sound like the song. I DO know for sure that chords are right, just not if 
are tabbed in the proper way.
|----------------------------------------------------------------|
|----------------------------------------------------------------|
|----------------------------------------------------------------|
|--2h0h2/5-02-xxx-x-2h0h2/5-05/0*-2h0h2/5-02-xxx-x-2h0h2/5-05-7--|X2
|--2h0h2/5-02-xxx-x-2h0h2/5-05/0*-2h0h2/5-02-xxx-x-2h0h2/5-05-7--|
|--2h0h2/5-02-xxx-x-2h0h2/5-05/0*-2h0h2/5-02-xxx-x-2h0h2/5-05-7--|

GUITAR 2: Solo: Not sure if my numbers are correct but the pattern is for sure. Anywhere 
the fretboard using this pattern sounds fine.
|--10-1313-12--10-1313-12/15--10-1313-12----------|
|------------13-------------------------13-13/15--|
|-------------------------------------------------|
|-------------------------------------------------|
|-------------------------------------------------|
|-------------------------------------------------|
SOLO CONT:
|--10-1313-12--10-1313-12/15--10-1313-12---15-15--|
|------------13-------------------------13-15-15--|
|-------------------------------------------------|
|-------------------------------------------------|
|-------------------------------------------------|
|-------------------------------------------------|

CHORUS: Same as 1st time

OUTRO: Both GUITARS 1 and 2  4X!!!
|---------------------------|
|---------------------------|
|-------------5-------------|
|-222-555-000-5-555-444-0/2-|
|-222-555-000-3-555-444-0/2-|
|-222-555-000---555-444-0/2-|

That is it. 100% correct. Legend below.
/ = slide
. = palm mute
h = hammer on
b = bend
* = emphasize
x = muffle string
~ = hold out

Post any comments, complaints, or what you hear on this tabs page.
            
Submit corrections

comments powered by Disqus
↑ Back to top | Breaking Benjamin Tabs for Away. Lyrics for acoustic guitar and electric guitar. Tablatures and chords are parodies/interpretations of the original songs. You may use it for private study, scholarship, research or language learning purposes only