» » »

Breaking Benjamin, Always Tabs (ver.3)

Artists:  A B C D E F G H I J K L M N O P Q R S T U V W X Y Z # 

Always Tabs (ver.3)

Breaking Benjamin Tabs
 Rating:
4.4/5 (7 votes)
Always lessons Tabs too difficult? Try these video lessons and learn fast
1
                -------------------------------------------------------------------------------
                             ALWAYS - Breaking Benjamin
-------------------------------------------------------------------------------

Tuning: Drop Db

This is a song that can be found on the internet, it's only live, never really
recorded... but it's awesome... (btw the chorus is virtually the same as "So Cold")

Intro
Eb|--------------------------------------------------------------------------|
Bb|--------------------------------------------------------------------------|
Gb|--------------------------55550000----------------------------------------|
Db|--0*-0*-0*-0*-0*-0*-0*-0*-------------------------------------------------|
Ab|--0*-0*-0*-0*-0*-0*-0*-0*-------------------------------------------------|
Db|--0*-0*-0*-0*-0*-0*-0*-0*-------------------------------------------------|

Main Riff
eb|--------------------------------------------------------------------------|
Bb|--------------------------------------------------------------------------|
Gb|-------5-----5-----------------5-----5-----5b-------5-----5---------------|
Db|-0--0--5--0--5-0-0-------0--0--5--0--5-0-0----0--0--5--0--5--0--0---------|
Ab|-0--0--3--0--3-0-0-3h5p3-0--0--3--0--3-0-0----0--0--3--0--3--0--0-3h5p3---|
Db|-0--0-----0----0-0-------0--0-----0----0-0----0--0-----0-----0--0---------|

eb|--------------------------------------------------------------------------|
Bb|--------------------------------------------------------------------------|
Gb|-------5-----5------------------------------------------------------------|
Db|-0--0--5--0--5-0-0--------------------------------------------------------|
Ab|-0--0--3--0--3-0-0-3h5-3h5------------------------------------------------|
Db|-0--0-----0----0-0--------------------------------------------------------|

Verse  (4x)
eb|--------------------------------------------------------------------------|
Bb|--------------------------------------------------------------------------|
Gb|----------------------------------------------------------5p0-0h5---------|
Db|--------------------------------------------------------------------------|
Ab|------3---3-----3---3-----3---3-------3---3-----3---3---------------------|
Db|--0-0---0---0-0---0---0-0---0---0-0-0---0---0-0---------------------------|

Chorus (3x)
eb|--------------------------------------------|-----------------------------|
Bb|-10-10-10-10--------------------------------|-10-10-10-10-----------------|
Gb|-10-10-10-10--------------------12-12-12-12-|-10-10-10-10/12--------------|
Db|-8--8--8--8--0-0*--0-0*--0-0*--0-0*-10-10-10-10-|-8--8--8-- 8/10----------|
Ab|-8--8--8--8--0-0*--0-0*--0-0*--0-0*-10-10-10-10-|-8--8--8-- 8/10----------|
Db|-8--8--8--8--0-0*--0-0*--0-0*--0-0*-10-10-10-10-|-8--8--8-- 8/10----------|

Main Riff
Verse
Chorus
Main Riff
Intro

End of Break (Intro)That parts a little sketchy, it's just open on the Db and then all 
picked on fret 5
eb|--------------------------------------------------------------------------|
Bb|-----------------------------------/10------------------------------------|
Gb|------5^------5^------5^-----------/10------------------------------------|
Db|---5^-------5^------5^--------3---5/8-------------------------------------|
Ab|-----5^-5^---5^-5^---5^-5^----3---5/8-------------------------------------|
Db|-0--5^---0-5^-----0-5^--------3---5/8-------------------------------------|

Chorus
Main Riff

| /  slide up
| \  slide down
| h  hammer-on
| p  pull-off
| ~  vibrato
| ^  harmonic
| x  Mute note
===============================================================================
            
Submit corrections

comments powered by Disqus
↑ Back to top | Breaking Benjamin Tabs for Always. Lyrics for acoustic guitar and electric guitar. 1 Tablatures and chords are parodies/interpretations of the original songs. You may use it for private study, scholarship, research or language learning purposes only