» » »

Always Tabs (ver.2)

Artists:  A B C D E F G H I J K L M N O P Q R S T U V W X Y Z # 

Always Tabs (ver.2)

Breaking Benjamin
Rating:
4/5 (1 vote)

Hard to play? Try these video lessons and learn fast.
                Breaking Benjamin
Always (2002 Inertia Hybrid)
Tuning Db Ab Db Gb Bb Eb

Legend:
\-slide down
pm-palm mute
h-hammer on
/-slide up

This is the latest version of "Always" that Breaking Benjamin performed.

Intro:
Eb|------------------------------------------------------------------------|
Bb|------------------------------------------------------------------------|
Gb|------------------------------------------------------------------------|
Db|------------------------------------------------------------------------|
Ab|--8\------5-----3-----5-----3--------------5-----3-----5-----3----------|
Db|--8\--0-3---0-5---0-3---0-5---0-3-6-6--0-3---0-5---0-3---0-5---0-3-7-7--|

Eb|--------------------------------------------------------------------|
Bb|--------------------------------------------------------------------|
Gb|--------------------------------------------------------------------|
Db|--------------------------------------------------------------------|
Ab|------5-----3-----5-----3--------------5-----3-----5-----3----------|
Db|--0-3---0-5---0-3---0-5---0-3-6-6--0-3---0-5---0-3---0-5---0-3-7-7--|

Verse 1:
Eb|--------------------------------------------------------------------|
Bb|--------------------------------------------------------------------|
Gb|--------------------------------------------------------------------|
Db|--------------------------------------------------------------------|
Ab|------5-----3-----5-----3--------------5-----3-----5-----3----------|
Db|--0-3---0-5---0-3---0-5---0-3-6-6--0-3---0-5---0-3---0-5---0-3-7-7--|
     pmpmpmpmpmpmpmpmpmpmpmpmpmpmpmpmpmpmpmpmpmpmpmpmpmpmpmpmpmpmpmpm

Eb|--------------------------------------------------------------------|
Bb|--------------------------------------------------------------------|
Gb|--------------------------------------------------------------------|
Db|--------------------------------------------------------------------|
Ab|------5-----3-----5-----3--------------5-----3-----5-----3----------|
Db|--0-3---0-5---0-3---0-5---0-3-6-6--0-3---0-5---0-3---0-5---0-3-7-7--|
     pmpmpmpmpm  pmpm  pmpm  pmpmpmpmpmpm   pmpm  pmpm  pmpm  pmpm

Chorus:
Eb|-----------------------------------------------------------|
Bb|-------10---------10--10-----------------------------------|
Gb|-------10---------10--10-----------------------------------|
Db|--8----8-----8----8---8-----------------------10-10-10-10--|
Ab|--8----8-----8----8---8-----00--00--00--00----10-10-10-10--|
Db|--8----8-----8----8---8-----00--00--00--00----10-10-10-10--|x2

Eb|-------------------------------------------------------|
Bb|-------10---------10--10-------------------------------|
Gb|-------10---------10--10----7-----9-----10----12-------|
Db|--8----8-----8----8---8-----x-----x-----x-----x--------|
Ab|--8----8-----8----8---8-----5-----7-----8-----10-------|
Db|--8----8-----8----8---8-----0-----0-----0-----0--------|

Eb|-------------------------------------------------------|
Bb|-------10---------10--10----------13----------13---13--|
Gb|-------10---------10--10----12----12---12-----12---12--|
Db|--8----8-----8----8---8-----10----10---10-----10---10--|
Ab|--8----8-----8----8---8-----10----10---10-----10---10--|
Db|--8----8-----8----8---8-----10----10---10-----10---10--|

Back to Verse:
Eb|--------------------------------------------------------------------|
Bb|--------------------------------------------------------------------|
Gb|--------------------------------------------------------------------|
Db|--------------------------------------------------------------------|
Ab|------5-----3-----5-----3--------------5-----3-----5-----3----------|
Db|--0-3---0-5---0-3---0-5---0-3-6-6--0-3---0-5---0-3---0-5---0-3-7-7--|

Verse 2:
Eb|--------------------------------------------------------------------|
Bb|--------------------------------------------------------------------|
Gb|--------------------------------------------------------------------|
Db|--------------------------------------------------------------------|
Ab|------5-----3-----5-----3--------------5-----3-----5-----3----------|
Db|--0-3---0-5---0-3---0-5---0-3-6-6--0-3---0-5---0-3---0-5---0-3-7-7--|
     pmpmpmpmpmpmpmpmpmpmpmpmpmpmpmpmpmpmpmpmpmpmpmpmpmpmpmpmpmpmppmpm

Eb|--------------------------------------------------------------------|
Bb|--------------------------------------------------------------------|
Gb|--------------------------------------------------------------------|
Db|--------------------------------------------------------------------|
Ab|------5-----3-----5-----3--------------5-----3-----5-----3----------|
Db|--0-3---0-5---0-3---0-5---0-3-6-6--0-3---0-5---0-3---0-5---0-3-7-7--|
     pmpmpmpmpm  pmpm  pmpm  pmpmpmpmpmpm   pmpm  pmpm  pmpm  pmpm

Chorus:
Eb|-----------------------------------------------------------|
Bb|-------10---------10--10-----------------------------------|
Gb|-------10---------10--10-----------------------------------|
Db|--8----8-----8----8---8-----------------------10-10-10-10--|
Ab|--8----8-----8----8---8-----00--00--00--00----10-10-10-10--|
Db|--8----8-----8----8---8-----00--00--00--00----10-10-10-10--|x2

Eb|-------------------------------------------------------|
Bb|-------10---------10--10-------------------------------|
Gb|-------10---------10--10----7-----9-----10----12-------|
Db|--8----8-----8----8---8-----x-----x-----x-----x--------|
Ab|--8----8-----8----8---8-----5-----7-----8-----10-------|
Db|--8----8-----8----8---8-----0-----0-----0-----0--------|

Eb|-------------------------------------------------------|
Bb|-------10---------10--10----------13----------13---13--|
Gb|-------10---------10--10----12----12---12-----12---12--|
Db|--8----8-----8----8---8-----10----10---10-----10---10--|
Ab|--8----8-----8----8---8-----10----10---10-----10---10--|
Db|--8----8-----8----8---8-----10----10---10-----10---10--|

Bridge:
Eb|-------------------------------------------|
Bb|-------------------------------------------|
Gb|-------------------------------------------|
Db|-------------------------------------------|
Ab|--------5---------5-------5-------3--------|
Db|--0-3h5---0-3-5-6---0-3h5---6-5-6---6-5-3--|x2

Eb|-------------------------------------------|
Bb|-------------------------------------------|
Gb|-------------------------------------------|
Db|--------7---------7-------7-------5--------|
Ab|--0-3h5-5-0-3-5/6-5-0-3h5-5-6-5-6-3-6-5\3--|
Db|--0-3h5---0-3-5/6---0-3h5---6-5-6---6-5\3--|x2

Chorus:
Eb|-----------------------------------------------------------|
Bb|-------10---------10--10-----------------------------------|
Gb|-------10---------10--10-----------------------------------|
Db|--8----8-----8----8---8-----------------------10-10-10-10--|
Ab|--8----8-----8----8---8-----00--00--00--00----10-10-10-10--|
Db|--8----8-----8----8---8-----00--00--00--00----10-10-10-10--|x2

Eb|-------------------------------------------------------|
Bb|-------10---------10--10-------------------------------|
Gb|-------10---------10--10----7-----9-----10----12-------|
Db|--8----8-----8----8---8-----x-----x-----x-----x--------|
Ab|--8----8-----8----8---8-----5-----7-----8-----10-------|
Db|--8----8-----8----8---8-----0-----0-----0-----0--------|

Eb|-------------------------------------------------------|
Bb|-------10---------10--10----------13----------13---13--|
Gb|-------10---------10--10----12----12---12-----12---12--|
Db|--8----8-----8----8---8-----10----10---10-----10---10--|
Ab|--8----8-----8----8---8-----10----10---10-----10---10--|
Db|--8----8-----8----8---8-----10----10---10-----10---10--|

Outro: Guitar 1
Eb|----------------------------------------|
Bb|----------------------------------------|
Gb|--10-----10-----10-----10------9--------|
Db|---0-0-0--0-0-0--0-0-0--0-0-0--8-8-8-8--|
Ab|----------------------------------------|
Db|----------------------------------------|x4
        pmpm   pmpm   pmpm   pmpm   pmpmpm

Outro: Guitar 2 (when Guitar 1 plays 3rd time)
Eb|----------------------------------------|
Bb|--10-----10-----10-----10------8---8----|
Gb|--10-----10-----10-----10------9---9----|
Db|---0-0-0--0-0-0--0-0-0--0-0-0--8-8-8----|
Ab|----------------------------------------|
Db|----------------------------------------|x2
        pmpm   pmpm   pmpm   pmpm   pm

Outro Continued: Guitars 1 and 2
Eb|------------------|
Bb|--------------10--|
Gb|--------------10--|
Db|--0-00--0-00---8--|
Ab|--0-00--0-00---8--|
Db|--0-00--0-00---8--|x4

Eb|---------------------|
Bb|-----------------10--|
Gb|--7--10--9--10\--10--|
Db|--x---x--x---x----8--|
Ab|--5---8--7---8\---8--|
Db|--0---------------8--|x3

Outro continued: Guitar 1:
Eb|------------|
Bb|------------|
Gb|--7--10--9--|
Db|--x---x--x--|
Ab|--5---8--7--|
Db|--0---------|

Finished!
            
Hard to play? Try these video lessons and learn fast. | Correct




comments powered by Disqus
↑ Back to top | Tablatures and chords are parodies/interpretations of the original songs. You may use it for private study, scholarship, research or language learning purposes only