» » »

Breaking Benjamin, Always Bass tabs (ver.1)

Artists:  A B C D E F G H I J K L M N O P Q R S T U V W X Y Z # 

Always Bass tabs (ver.1)

Breaking Benjamin Tabs
 Rating:
4.2/5 (5 votes)
Always lessons Tabs too difficult? Try these video lessons and learn fast
                “Always” by: Breaking Benjamin

Tuning: C# G# C# F#

INTRO
F#|---------------------------------------------------|
C#|---------------------------------------------------|
G#|----------------------------------3-3-3-3----------|
C#|--0---0---0---0---0---0---0---0-----------3-3-3-3--|

PRE VERSE
F#|--------------------------------------------------|
C#|--------------------------------------------------|
G#|--------3-----3-----3/5-3--------3-----3------3^--|
C#|--0--0-----0----0-0--------0--0-----0----0-0------|

F#|-----------------------------------------------------|
C#|-----------------------------------------------------|
G#|--------3-----3-----3/5-3--------3-----3-----3/5-3/5-|
C#|--0--0-----0----0-0--------0--0-----0----0-0---------|

VERSE
F#|------------------------|
C#|------------------------|
G#|------------------------| x16
C#|--0-12-10-0-10-0-10-12--|

CHORUS
F#|--------------------------------------------------------|
C#|--------------------------------------------------------| x3
G#|--1--1-1--1-1--1-1--1-1-1-1----------------------3-3-3--|
C#|-----------------------------0-0--0-0--0-0--0-0---------|

F#|-------------------------------------------------------|
C#|-------------------------------------------------------|
G#|--1--1-1--1-1--1-1--1-1-1-1--3-3-3-3-3-3-3--3-3-3-3-3--|
C#|-------------------------------------------------------|

PRE VERSE

VERSE

CHORUS

PRE VERSE

INTRO x3

F#|---------------------------------------------------|
C#|---------------------------------------------------|
G#|--------------------------3-5-------------3-5------|
C#|--0---0---0---0-0-0-0-3-5-----0-0-0-0-3-5-----5--7-|

CHORUS

PRE VERSE x2

END ON
F#|--------|
C#|--------|
G#|--------|
C#|--0--0--|
            
Submit corrections

comments powered by Disqus
↑ Back to top | Breaking Benjamin Bass for Always. Lyrics for acoustic guitar and electric guitar. Tablatures and chords are parodies/interpretations of the original songs. You may use it for private study, scholarship, research or language learning purposes only