» » »

Breaking Benjamin, Always Tabs (ver.1)

Artists:  A B C D E F G H I J K L M N O P Q R S T U V W X Y Z # 

Always Tabs (ver.1)

Breaking Benjamin Tabs
Rating:
4/5 (3 votes)
Always lessons Tabs too difficult? Try these video lessons and learn fast
                
Tuning: C# G# C# F# A# D#
    or: Db Ab Db Gb Bb eb

This song was made in the Pre-Saturate days.
I hope you like this tab.

===================================================================
Intro pt. 1:
eb|----------------------------------------------------------|
Bb|----------------------------------------------------------|
Gb|-------------------------5555-----------------------------|
Db|-----------------------------3333-------------------------|
Ab|-0*-0*-0*-0*-0*-0*-0*-0*----------------------------------|
Db|-0*-0*-0*-0*-0*-0*-0*-0*----------------------------------|

Intro pt. 2:--
|------------------------------------------------------------|
|------------------------------------------------------------|
|----------------------------------------12------------------|
|-----10---10------5/7\5-----10---10-------------------------|
|-0-0-8--0-8--0-0--3/5\3-000-8--0-8--0-0-10------------------|
|-0-0----0----0-0--------000----0----0-0---\-----------------|
                                            \Bend this octave.

|------------------------------------------------------------|
|------------------------------------------------------------|
|------------------------------------------------------------|
|-----10---10------5/7\5-----10---10-------------------------|
|-0-0-8--0-8--0-0--3/5\3-000-8--0-8--------------------------|
|-0-0----0----0-0--------000----0----10-0-10-12--------------|

Verse:
|---------------------------------------------------------------------|
|---------------------------------------------------------------------|
|---------------------------------------------------------------------|
|---------------------------------10-0-10-12--------------------------|
|---------------------------------------------------------------------|
|-0-12-10-0-10-0-10-12--0-12-10-0-------------------------- This bar--| 4X
  . .  .  . .  . .  .   . .  .  .
  \__________________/
    Play three times

Chorus:
|--------------------------------------------------------------------|
|---10-10-10---------------------------------------------------------|
|---10-10-10---------------------------------------------------------|
|-8-8--8--8------------------10-10-10-10-----------------------------|
|-8-8--8--8--00*-00*-00*-00*-10-10-10-10-----------------------------|
|-8-8--8--8--00*-00*-00*-00*-10-10-10-10-------------------This bar--| 3X
  \_______/\___________________________/
   ^
listen for strum pattern.

|------------------------------------------------------------|
|---10-10-10-------------------------------------------------|
|---10-10-10-------------------------------------------------|
|-8-8--8--8--10-10-10----------------------------------------|
|-8-8--8--8--10-10-10----------------------------------------|
|-8-8--8--8--10-10-10----------------------------------------|

Breakdown
|------------------------------------------------------------|
|------------------------------------------------------------|
|-----------------------5555---------------------------------|
|---------------------------3333-----------------------------|
|-0*-0*-0*-0*-0*-0*-0*-----------0*-0*-0*-0*-0*-0*-0*-0*-3-5-|
|-0*-0*-0*-0*-0*-0*-0*-----------0*-0*-0*-0*-0*-0*-0*-0*-3-5-|
  \____________________________/
    Play three times

Outro
|------------------------------------------------------------|
|------------------------------------------------------------|
|------------------------------------------------------------|
|-0-0--------------------------------------------------------|
|-0-0--------------------------------------------------------|
|-0-0--------------------------------------------------------|

================================================================
Song order:

:Intro pt.2   1X
:Verse
:Chorus
:Intro pt.2   1X
:Breakdown
:Chorus       2X
(lyrics change the second time)
:Intro pt 2.  2X
:Outro
=================================================================

That's about it
It's possible that I missed some tidbits
But the whole song is accounted for
Or should be.

Enjoy.
            
Submit corrections

comments powered by Disqus
↑ Back to top | Breaking Benjamin Tabs for Always. Lyrics for acoustic guitar and electric guitar. Tablatures and chords are parodies/interpretations of the original songs. You may use it for private study, scholarship, research or language learning purposes only