» » »

Brandon Flowers, Swallow It Tabs (ver.1)

Artists:  A B C D E F G H I J K L M N O P Q R S T U V W X Y Z # 

Swallow It Tabs (ver.1)

Brandon Flowers Tabs
Rating:
0/5 (0 votes)
Swallow It lessons Tabs too difficult? Try these video lessons and learn fast
                
Song      ~ Swallow It
Artist    ~ Brandon Flowers
Album     ~ Flamingo
            jtoland


          Seek out    the light        between
          Instead of  slipping         through
E  :----------5-----|----------5-----|---------7------|--------7-------|
B  :------6-------6-|------6-------6-|-----6-------6--|----6-------6---|
G  :--7-------------|--7-------------|-7--------------|-7--------------|
D  :----------------|----------------|----------------|----------------|
A  :----------------|----------------|----------------|----------------|
E  :----------------|----------------|----------------|----------------|

    Time   and  confusion              glowing up   ahead
    You   bit off    more    much    more than you could chew  you could not
E  :--------6-------|--------6-------|----------6-----|----------5-----|
B  :----6-------6---|----6-------6---|------6-------6-|------6-------6-|
G  :7---------------|7---------------|--7-------------|--5-------------|
D  :----------------|----------------|----------------|----------------|
A  :----------------|----------------|----------------|----------------|
E  :----------------|----------------|----------------|----------------|

      Swallow    it                 no baby  your  not    ready        slow
      Down             and   take the    time to   evolve      you could not
      Swallow    it                 no baby  your  not    ready        slow
E  :----------------|-----------------|----------------|----------------|
B  :------6---8---8-|--------6---10---|------------6---|-------6---8----|
G  :--7-------------|--7--------------|--7-----7-------|--7-------------|
D  :----------------|-----------------|----------------|----------------|
A  :----------------|-----------------|----------------|----------------|
E  :----------------|-----------------|----------------|----------------|

    Down
E  :----------------|----------------|--10---12---------|
B  :--------6---6---|--------6---6---|-------------13---|
G  :--7-------------|--7-------------|----------------12|
D  :----------------|----------------|------------------|
A  :----------------|----------------|------------------|
E  :----------------|----------------|------------------|

          We had a     lot      to    learn
          Time came to clear  your   slate
E  :----------5-----|----------5-----|---------7------|--------7-------|
B  :------6-------6-|------6-------6-|-----6-------6--|----6-------6---|
G  :--7-------------|--7-------------|-7--------------|-7--------------|
D  :----------------|----------------|----------------|----------------|
A  :----------------|----------------|----------------|----------------|
E  :----------------|----------------|----------------|----------------|

      Table     manners and grace      how to wait your turn   when
      You had too    much       had    too much on your plate you could not
E  :--------6-------|--------6-------|----------6-----|----------5-----|
B  :----6-------6---|----6-------6---|------6-------6-|------6-------6-|
G  :7---------------|7---------------|--7-------------|--5-------------|
D  :----------------|----------------|----------------|----------------|
A  :----------------|----------------|----------------|----------------|
E  :----------------|----------------|----------------|----------------|

  # Lead guitar plays the below section in various guises Throughout second chorus and 
end #
E  :----------------|----------------|----------------|----------------|--10---12---------|
B  :--8---8---8---8-|--8---6---8---10|--8---8---8---8-|--8---6---8---10|------------13----|
G  :----------------|----------------|----------------|--------------- x6---------------12|
D  :----------------|----------------|----------------|----------------|------------------|
A  :----------------|----------------|----------------|----------------|------------------|
E  :----------------|----------------|----------------|----------------|------------------|

  # Played approaching the exitude #

E  :---------------------|-----------------|------------------------|
B  :---------------------|-----------------|------------------------|
G  :----------10---------|-----------------|10-12-10-12-14-12-10----|
D  :--10-8-10----12-10-8-|--8-10-----x2----|---------------------12-|
A  :---------------------|-----------------|------------------------|
E  :---------------------|-----------------|------------------------|

E  :-----------------------|-----------------------|
B  :---11--10--------------|---11--10--------------|
G  :10--------12-10--------|10--------12-10-12-----|
D  :----------------12-----|-----------------------|
A  :-----------------------|-----------------------|
E  :-----------------------|-----------------------|

      # Outro #
E  :--8--------8--10-|--8-10-6-6-6---6-8-8|
B  :-----6--6--------|-------------6------|
G  :-----------------|--------------------|x3
D  :-----------------|--------------------|
A  :-----------------|--------------------|
E  :-----------------|--------------------|

Verse 1
Seek out the light between
Time and confusion glowing up ahead
Instead of slipping through
You bit off more, much more than you could chew

Chorus 1
You could not Swallow It
No baby you're not ready, slow down
And take the time to evolve
You could not Swallow It
No baby you're not ready, slow down

Verse 2
We had a lot to learn
Table manners and grace, how to wait your turn when
Time came to clear your slate
You had too much, had too much on your plate

Chorus 2
You could not Swallow It
No baby you're not ready, slow down
And take the time to evolve
You could not Swallow It
No baby you're not ready, slow down

Verse 3
Take your medicine and crawl before you walk
Think it through before you open you open your mouth to talk
Be an advocate of joy
Find your little heart's desire and

Chorus 3
Follow it
Whoa baby you're not ready, slow down
And take the time to evolve
You could not Swallow It
No baby you're not ready, slow down

(Baby you're not ready!)

Chorus 4
You could not Swallow It
No baby you're not ready, slow down
And take the time to evolve
You could not Swallow It
No baby you're not ready, now

(Slow down!)

No, no, no, no!

Exitude
Don't be afraid, this is your year
It's gonna be alright, you're a performer
Just take your time, but not too much time

No, no, no, no!
                                          fin.
            
Submit corrections

comments powered by Disqus
↑ Back to top | Brandon Flowers Tabs for Swallow It. Lyrics for acoustic guitar and electric guitar. Tablatures and chords are parodies/interpretations of the original songs. You may use it for private study, scholarship, research or language learning purposes only