» » »

Brandon Flowers, Playing With Fire Bass tabs (ver.1)

Artists:  A B C D E F G H I J K L M N O P Q R S T U V W X Y Z # 

Playing With Fire Bass tabs (ver.1)

Brandon Flowers Tabs
Rating:
0/5 (0 votes)
Playing With Fire lessons Tabs too difficult? Try these video lessons and learn fast
                Brandon Flowers - Playing with fire
Listen to the bass line to get the timing down
Rawrformybassguitar 

Tuning: EADG (standard)
Starts at: 0:28
G|---------99--------99--------55---------55--------77--------77-----------------------|
D|-------79--------79--------35--------35---------57--------57---------77--------99----|
A|-777777----777777----333333----333333-----555555----555555---------57--------79------|
E|-------------------------------------------------------------555555----777777--------|(2x)

G|-------------------------------------------------------------------------------------|
D|-------------------------------------------------------------------------------------|
A|777777777777777777-333333333333333333-555555555555555555-----------------------------|
E|--------------------------------------------------------55555555-77777777------------|(4x)


G|------------------------------------------------------------------------------------|
D|------------------------------------------------------------------------------------|
A|777777777777777777-333333333333333333-55555555--------------------------------------|
E|----------------------------------------------33333333-55555555-77777777------------|(1x)

G|-------------------------------------------------------------------------------------|
D|-------------------------------------------------------------------------------------|
A|777777777777777777-333333333333333333-555555555555555555-----------------------------|
E|--------------------------------------------------------55555555-77777777------------|(1x)

G|---------------------------------------------------------------------------------------------|
D|-------------------------------------------------------------------------------------12121212|
A|-5555555555555555-7777777777777777-33333333--------33333333--------555555555555555555--------|
E|-------------------------------------------33333333--------33333333--------------------------| 
(12 = twelve )

G|----------------------------------------------------------|
D|----------------------------------------------12121212----|
A|-33333333--------33333333--------555555555555-------------|
E|---------33333333--------33333333-------------------------|
(12 = twelve)

G|---------------------------------------------------------------------------|
D|---------------------------------------------------------------------------|
A|-33333333--------33333333--------77777777--------5555555555555555----------|
E|---------33333333--------33333333--------77777777--------------------------|

G|-------------------------------------------------------------------------------------|
D|-------------------------------------------------------------------------------------|
A|777777777777777777-333333333333333333-555555555555555555-----------------------------|
E|--------------------------------------------------------55555555-77777777------------|(5x)

G|------------|
D|------------|
A|-7~~--------|
E|------------|

Enjoy!
Please comment and rate!
Greets Rawrformybassguitar
            
Submit corrections

comments powered by Disqus
↑ Back to top | Brandon Flowers Bass for Playing With Fire. Lyrics for acoustic guitar and electric guitar. Tablatures and chords are parodies/interpretations of the original songs. You may use it for private study, scholarship, research or language learning purposes only