» » »

Brandon Flowers, Playing With Fire Tabs (ver.1)

Artists:  A B C D E F G H I J K L M N O P Q R S T U V W X Y Z # 

Playing With Fire Tabs (ver.1)

Brandon Flowers Tabs
 Rating:
4/5 (4 votes)
Playing With Fire lessons Tabs too difficult? Try these video lessons and learn fast
                Music by  Brandon Flowers
Brandon Flowers - Playing With Fire 
Guitar Tabs
 Tuning: E standard (eBGDAE)

e|-----3--7----8--8---10--10----8---5-| 
B|-3-5-------8--8---10--10---10---7---| 
G|------------------------------------|
D|------------------------------------|
A|------------------------------------|
E|------------------------------------|


e|-3-3---3-3---3-3---3-3---5-5---5-5---5-5---2-2| 
B|----------------------------------------------|
G|----------------------------------------------|
D|----------------------------------------------|
A|----------------------------------------------|
E|----------------------------------------------|

e|---------------------------------------------------------|
B|-5-5---5-5---5-5---5-5---7-7---7-7---10-10---7-----------|
G|---------------------------------------------------------|
D|---------------------------------------------------------|
A|-------------------------------------------------7-10-9-7|
E|-----------------------------------------------7---------|

e|-------------------------------------------|
B|-------------------------------------------|
G|-------------------------------------------| 
D|-7-9---------7-9-7-------------------------|
A|-----10------------------7-9---7-10-9-----7|
E|-----------------------7----------------7--|


Riff 1

e|------------------------------------------------|
B|-5-5---5-5---5-5---5-5---7-7---7-7---10-10---7-7|
G|------------------------------------------------| 2x
D|------------------------------------------------|
A|------------------------------------------------|
E|------------------------------------------------|

Chorus

e|0---------0--------2--------0-------2|
B|0---------1--------3--------1-------3|
G|0---------0--------2--------2-------4|
D|2---------2--------0--------2-------4|
A|2---------3-----------------0-------2|
E|0-----------------------------------2|





Riff 2

e|------------------------------------------------|
B|-5-5---5-5---5-5---5-5---7-7---7-7---10-10---7-7|
G|------------------------------------------------| 2x
D|------------------------------------------------|
A|------------------------------------------------|


e|2----0---------0---3---0---3---2---2|
B|3----0---------1---3---1---3---3---3|
G|2----0---------0---0---0---0---2---2|
D|0----2---------2---0---2---0---0---0|
A|-----2---------3---x---3---x--------|
E|-----0-------------3-------3--------|


e|0---3---0---3---2---2---0---3---0---3---0---0---2---2|
B|1---3---1---3---3---3---1---3---1---3---0---0---3---3|
G|0---0---0---0---2---2---0---0---0---0---0---0---2---2|
D|2---0---2---0---0---0---2---0---2---0---2---2---0---0|
A|3---x---3---x-----------3---x---3---x---2---2--------|
E|----3-------3---------------3-------3---0---0--------|


e|-----------------------------------------------------------------------------|
B|-----------------------------------------------------------------------------|
G|---------------------------------------9---9--7-9---11-12-9---11-12-14--14-16| 2x 
D|9---9--7-9----12-10-9---9--7-9---10-12---------------------------------------|
A|-----------------------------------------------------------------------------|
E|-----------------------------------------------------------------------------|

e|0---------0--------2--------0-------2|
B|0---------1--------3--------1-------3|
G|0---------0--------2--------2-------4|
D|2---------2--------0--------2-------4|
A|2---------3-----------------0-------2|
E|0-----------------------------------2|

e|-----------------------------------------------------------------------------|
B|-----------------------------------------------------------------------------|
G|---------------------------------------9---9--7-9---11-12-9---11-12-14--14-16| 2x 
D|9---9--7-9----12-10-9---9--7-9---10-12---------------------------------------|

e|0|
B|0|
G|0|
D|2|
A|2|
E|0|
            
Submit corrections

comments powered by Disqus
↑ Back to top | Brandon Flowers Tabs for Playing With Fire. Lyrics for acoustic guitar and electric guitar. Tablatures and chords are parodies/interpretations of the original songs. You may use it for private study, scholarship, research or language learning purposes only