» » »

Brandon Flowers, Crossfire Tabs (ver.2)

Artists:  A B C D E F G H I J K L M N O P Q R S T U V W X Y Z # 

Crossfire Tabs (ver.2)

Brandon Flowers Tabs
 Rating:
4/5 (4 votes)
Crossfire lessons Tabs too difficult? Try these video lessons and learn fast
1
                Studio: Capo 1

Live: Capo 2

Intro

e|--------------------------------|
B|--------------------------------|
G|------2----4-2-1----------------|
D|----2------------2--------------|
A|--0----------------2------------|
E|--------------------------------|

e|--------------------------------|
B|--------------------------------|
G|------2----4-2-1-4-3-------4----|
D|----2----------------4-2-4------|
A|--4-----------------------------|
E|--------------------------------|

You should play this 2 times

Solo + Outro

e|----18-18-18-16-16-16-14-14-14--16------------|
B|-19--------------------------------14----14-16|
G|----------------------------------------------| 2x
D|----------------------------------------------|
A|----------------------------------------------|
E|----------------------------------------------|

e|--------------------------------18-19-18----|
B|-18-19-18-14----11-12-11----------------19--|
G|-----------------------13-11--------------18| 
D|--------------------------------------------|
A|--------------------------------------------|
E|--------------------------------------------|

Got this by hearing ;)
            
Submit corrections

comments powered by Disqus
↑ Back to top | Brandon Flowers Tabs for Crossfire. Lyrics for acoustic guitar and electric guitar. 1 Tablatures and chords are parodies/interpretations of the original songs. You may use it for private study, scholarship, research or language learning purposes only