» » »

Brandon Flowers, Crossfire Bass tabs (ver.1)

Artists:  A B C D E F G H I J K L M N O P Q R S T U V W X Y Z # 

Crossfire Bass tabs (ver.1)

Brandon Flowers Tabs
 Rating:
4/5 (4 votes)
Crossfire lessons Tabs too difficult? Try these video lessons and learn fast
                Yep, bass tab of the song Crossfire!
Listen to the bass line to get the timing down

Tuning: Standard.

Verse, starts at 0:34
G|----------------||
D|----------------||
A|-----4------6---||
E|22222--44444----||(3x)

G|---------------------------------------------------------||
D|---------------------------------------------------------||
A|--444-444-444-444(till the chorus, I think 12 times)-----||
E|2--------------------------------------------------------||

Chorus 1 ''And we're caught up in the crossfire''

G|-------------------------------------------------||
D|-------------------------------------------------||
A|222222222222------------66666666666-444444444444-|| 
E|------------222222222222-------------------------||(2x)

''Lay your body down...''
G|--------------------------------------------||
D|--------------------------------------------||
A|------------222222222222-444444444444444444-||
E|444444444444--------------------------------||

Verse
G|----------------||
D|----------------||
A|-----4------6---||
E|22222--44444----||(3x)

...Chaos in the rain, yeah They're handing it out''
G|---------------------------------------------------------||
D|---------------------------------------------------------||
A|--444-444-444-444(till the chorus, I think 12 times)-----||
E|2--------------------------------------------------------||

Chorus 2 ''And we're caught up in the crossfire''
G|----------------------------------------------------||
D|----------------------------------------------------||
A|222222222222------------666666666666-444444444444---||
E|------------222222222222----------------------------||(2x)

''Lay your body down...''
G|--------------------------------------------------------------------------------||
D|--------------------------------------------------------------------------------||
A|------------222222222222-444444444444444444-666666666666------------444444444444||
E|444444444444--------------------------------------------666666666666------------||

''Tell the devil that he can go back from where he came... ...the boundaries of our fears''
G|-4--4------------------------4---4---------------------------34--4-||
D|---------4---431-1---------------------4----431-1---6------4----4--||
A|2-22--2------------2-22-2222---22--2------------------1/6----------||
E|--------2--22-------------------------2---22------4-------6--------||

''Ooooooooooooh Ooooooooooooooooh''
G|---------------------------------------------------||
D|---------------------------------------------------||
A|222222222222------------666666666666-444444444444--||
E|------------222222222222---------------------------||

''Ooooooooooooh Lay your body down, Lay your body down, Lay your body down''
G|--------------------------------------------------------------------------| |
D|--------------------------------------------------------------------------| |
A|222222222222------------666666666666------------4444444444444444444444444-| |
E|------------222222222222------------666666666666--------------------------| |

''Lay your body down, Lay your body down, Lay your body down''
G|---------------------------------------------------||
D|---------------------------------------------------||
A|------------222222222222-4444444444444444444444444-||
E|444444444444---------------------------------------||

''Next to mine...''
G|----------------||
D|----------------||
A|-----4------6---||
E|22222--44444----|| till the end

Please comment and rate... :)

Greets Rawrformybassguitar
            
Submit corrections

comments powered by Disqus
↑ Back to top | Brandon Flowers Bass for Crossfire. Lyrics for acoustic guitar and electric guitar. Tablatures and chords are parodies/interpretations of the original songs. You may use it for private study, scholarship, research or language learning purposes only