>
 >
Motormeth

Motormeth Bass Tabs

Brand New Sin - Motormeth chords, tabs, tablatures, lyrics

Guitar lessons | Add/correct | Request | Top 50 tabs Artists:  A B C D E F G H I J K L M N O P Q R S T U V W X Y Z 0-9

Motormeth Bass Tabs – Brand New Sin

CD, Sheet music, Poster

Do you like Motormeth? Share with your friends now
Bass TabsTabs
Motormeth by Brand New Sin
Drop C Tuning

x on the tab = ghost note
x underneath = palm muted

F------------------------------------------------------------| slide on 3rd
C------------------------------------------------------------| fret but  
G------------------------------------------------------------| don't slide
C-0-0h3p0h3p0-0-0---0-0h3p0h5p0-0-0---0-0h3p0h3p0-0-0--5-3/--| off.

0.18                                                       x2
F-----------------------------------------------------------|     
C-----------------------------------------------------------|
G--------------------------------------------------5-----3--|
C-0-0-0-0-0-0--x--0-0-0-0-0-0--x--0-0-0-0-0-0--0-0---0-0----|
    x x x x x     x x x x x x     x x x x x x  

0.34 CHORUS                   x2
F-------------------------------|
C-------------------------------|
G----------5-----3-----5-----3--|
C-2--5--0----0-0---0-0---0-0----|

1.32
F--------------------------|
C--------------------------|
G-5-----3-----2-----1-0-0--|
C---0-0---0-0---0-0-----0--|

1.38                                                   x7
F----------------|              F-----------------------|
C----------------| repeat lots  C-9-8-12-9-8-7-5-5-7-5--|
G-5h7p5h7p5h7p5--|              G-9-8-12-9-8-7-5-5-7-5--|
C----------------|              C-9-8-12-9-8-7-5-5-7-5--|

2.10
F-------------|
C-------------|
G-------------|
C-9-8-7-5-2~--|

OUTRO 2.54
F-------------|
C-------------|
G-------------|
C-9-8-7-5-2~--|

Any corrections please comment
Thanks 





Comments


Popular Brand New Sin tabs & chords
Black And Blue Tabs
Broken Soul Tabs
Broken Soul Update Tabs
Motormeth Tabs
My World Tabs
My World 1 Tabs
My World Intro Tabs
Once In A Life Time Tabs
Running Alone Tabs
Wyoming Tabs


Song lyrics



↑ Back to top | Tablatures and chords are parodies/interpretations of the original songs. You may use it for private study, scholarship, research or language learning purposes only
© 2014 AZChords.com Contact us | Privacy policy | DMCA | Add/correct tabs | Request tabs | Top 50 tabs