» » »

Brand New Sin, Missing You Tabs (ver.1)

Artists:  A B C D E F G H I J K L M N O P Q R S T U V W X Y Z # 

Missing You Tabs (ver.1)

Brand New Sin Tabs
Rating:
0/5 (0 votes)
Missing You lessons Tabs too difficult? Try these video lessons and learn fast
                here's what i've figured out

D|-------------------------------------------------------------------------|
A|-------------------7---778---8--77-------------------5--556---6--5-5-----|
F|-------------------7---777---7--77-------------------5--555---5--5-5-----|
C|-------------------7---777---7--77-------------------5--555---5--5-5-----|
G|-----5h8--7--5--5--5---555---5--55------5h8--7--3--3-3--333---3--3-3-----|
D|-5h7--------------------------------5h7----------------------------------|

D|--------------------3---33-3/5--1--1--1/3-----------|
A|--------------------3---33-3/5--1--1--1/3-----------|
F|--------------------6---66------2--2--2/6-----------|
C|--------------------5---55------3--3--3/5-----------|
G|-----5h8--7---------5---55------3--3--3/5-----------|
D|-5h7---------3---3--3---33-3/5--1--1--1/3---3-1-1/3-|

D|--------------------------|
A|--------------------7-----|
F|--------------------7-----|
C|--------------------7-----|
G|-----5h8--7--5---5--5-----|
D|-5h7----------------------|

thats the main part, u can figure the rhythm for yourself
            

comments powered by Disqus
↑ Back to top | Brand New Sin Tabs for Missing You. Lyrics for acoustic guitar and electric guitar. Tablatures and chords are parodies/interpretations of the original songs. You may use it for private study, scholarship, research or language learning purposes only