» » »

Brand New, Jaws Theme Swimming Tabs (ver.1)

Artists:  A B C D E F G H I J K L M N O P Q R S T U V W X Y Z # 

Jaws Theme Swimming Tabs (ver.1)

Brand New Tabs
 Rating:
4/5 (4 votes)
Jaws Theme Swimming lessons Tabs too difficult? Try these video lessons and learn fast
                
NOTICE:

PM ::::: = palm mutes
h - hammer-one
p - pull-off

verse
E|--------------------------------0-0--------------------0----------------------------------|
B|------3-3------3-3------3-3-----3-3------3-3------3-3---0---------------------------------|
G|------4-4------4-4------4-4--------------4-4------4-4----0--------------------------------|
D|----------------------------------------------------------0-------------------------------|
A|-0h2------2p0-----------------------0h2------2p0-----------2------------------------------|
E|-------------------0h3------3\2-----------------------------0-----------------------------|

prechorus
E|-5-------------------0----------------5----------------0---------------------------------|
B|-3-------------------3----------------3----------------3---------------------------------|
G|-4-------------------2----------------4----------------2---------------------------------|
D|-----------------------------------------------------------------------------------------|
A|-----------------------------------------------------------------------------------------|
E|-----------------------------------------------------------------------------------------|
G|-----------------------------------------------------------------------------------------|
D|-------2--4--2-------------2--4--2-------5--4--2-----4----------7-----9------------------|
A|-2--5-----------5----0--5----------5--------------5------/7--9-----9---------------------|
E|--------------------------------------3----------------2---------------------------------|

chorus
E|-----------------------------------------------------------------------------------------|
B|-----------------------------------------------------------------------------------------|
G|-----------------------------------------------------------------------------------------|
D|-----------------------------------------------------------------------------------------|
A|-5----5----5----5----5----5----5----5----5----4----7-------------------------------------|
E|-3--0-3--0-3--0-3--0-3--0-3--0-3--0-3--0-3--0-2--0-5--0----------------------------------|

E|-----------------------------------------------------------------------------------------|
B|-----------------------------------------------------------------------------------------|
G|-----------------------------------------------------------------------------------------|
D|---------------------------------------------------7-------------------------------------|
A|-9----9----9----9----9----9----9----9----9----9----5-----7-------------------------------|
E|-7--0-7--0-7--0-7--0-7--0-7--0-7--0-7--0-7--0-7--0----0--5-0-----------------------------|

2nd half of 2nd chorus
E|-----------------------------------------------------------------------------------------|
B|-----------3-----------------------------------------------------------------------------|
G|-2---------2-----------------------------------------------------------------------------|
D|-0---------0---x12-----------------------------------------------------------------------|
A|-x--x12----------------------------------------------------------------------------------|
E|-3---------------------------------------------------------------------------------------|

bridge  (hard to figure out so i just made up stuff)
E|-------------5--------------5--------------5-|-------------5--||-------12----|||---------12--------|
B|---------------------------------------------|----------------||----10-------|||---10-12----12-10--|
G|--------2--------------2--------------2------|--------2-------||--9----------|||-9-----------------|
D|------4----4---------4----4---------4----4---|------4----4----||-------------|||-------------------|
A|-0h2------------2h0--------------------------|----------------||-------------|||-------------------|
E|-------------------------------0p3-----------|-3p2------------||-------------|||-------------------|
                                                1st/3rd ending    second ending   fourth ending

E|-----------------------------------------------------------------------------------------|
B|-------------------------------------5---------------------------------------------------|
G|-4-4-4-4-4-4-------------4-4-4-4-4-4-4---------------------------------------------------|
D|-4-4-4-4-4-4-2-2-2-2-----4-4-4-4-4-4-2-hold----------------------------------------------|
A|-2-2-2-2-2-2-2-2-2-2-4-7-2-2-2-2-2-2-2---------------------------------------------------|
E|-------3-3-3-0-0-0-0-2-5-------3-3-3-0---------------------------------------------------|
E|-12----------------------12------------------12------------------------------------------|
B|-------10----------10----------10------10-12----12-10------------------------------------|
G|-------------9-----------------------9---------------------------------------------------|
D|-----------------------------------------------------------------------------------------|
A|-----------------------------------------------------------------------------------------|
E|-----------------------------------------------------------------------------------------|

play 2nd half of 2nd chorus again


end with this whole thing, and then just the bassline.
E|-0-------------------5----------------0----------------5---------------------------------|
B|-3-------------------3----------------3----------------3---------------------------------|
G|-2-------------------4----------------2----------------4---------------------------------|
D|-----------------------------------------------------------------------------------------|
A|-----------------------------------------------------------------------------------------|
E|-----------------------------------------------------------------------------------------|
G|-----------------------------------------------------------------------------------------|
D|-------2--4--2-------------2--4--2-------5--4--2-----4----------7-----9------------------|
A|-2--5-----------5----0--5----------5--------------5------/7--9-----9---------------------|
E|--------------------------------------3----------------2---------------------------------|

end on bass note A|--2--|
            
Submit corrections

comments powered by Disqus
↑ Back to top | Brand New Tabs for Jaws Theme Swimming. Lyrics for acoustic guitar and electric guitar. Tablatures and chords are parodies/interpretations of the original songs. You may use it for private study, scholarship, research or language learning purposes only