» » »

Brad Sucks, Time To Take Out The Trash Tabs (ver.1)

Artists:  A B C D E F G H I J K L M N O P Q R S T U V W X Y Z # 

Time To Take Out The Trash Tabs (ver.1)

Brad Sucks Tabs
 Rating:
4/5 (4 votes)
Time To Take Out The Trash lessons Tabs too difficult? Try these video lessons and learn fast
1
                
Tuning: Standard (EADGBe)

(still working on the solo)

The Intro and the verse's are acoustic(or clean guitar), the chorus and the brige are distorred.

Intro
***Note: the 'v' and '^' tells you to strum down or up.***
   (A Chord)
   v v  v  v^ v v  v  v v  v  v^ v v  v  v v  v  v^ v v  v  v v  v  v^ v v  v
e|-0-0--0--00-0-0--0--0-0--0--00-0-0--0--0-0--0--00-0-0--0--0-0--0--00-0-0--0---|
B|-2-2--2--22-2-2--2--2-2--2--22-2-2--2--2-2--2--22-2-2--2--2-2--2--22-2-2--2---|
G|-2-2--2--22-2-2--2--2-2--2--22-2-2--2--2-2--2--22-2-2--2--2-2--2--22-2-2--2---|
D|-2-2--2--22-2-2--2--2-2--2--22-2-2--2--2-2--2--22-2-2--2--2-2--2--22-2-2--2---|
A|-0-0--0--00-0-0--0--0-0--0--00-0-0--0--0-0--0--00-0-0--0--0-0--0--00-0-0--0---|
E|------------------------------------------------------------------------------|
   (E Chord)
   v v  v  v^ v v  v  v v  v  v^ v v  v  v v  v  v^ v v  v  v v  v  v^ v v  v
e|-0-0--0--00-0-0--0--0-0--0--00-0-0--0--0-0--0--00-0-0--0--0-0--0--00-0-0--0---|
B|-0-0--0--00-0-0--0--0-0--0--00-0-0--0--0-0--0--00-0-0--0--0-0--0--00-0-0--0---|
G|-1-1--1--11-1-1--1--1-1--1--11-1-1--1--1-1--1--11-1-1--1--1-1--1--11-1-1--1---|
D|-2-2--2--22-2-2--2--2-2--2--22-2-2--2--2-2--2--22-2-2--2--2-2--2--22-2-2--2---|
A|-2-2--2--22-2-2--2--2-2--2--22-2-2--2--2-2--2--22-2-2--2--2-2--2--22-2-2--2---|
E|-0-0--0--00-0-0--0--0-0--0--00-0-0--0--0-0--0--00-0-0--0--0-0--0--00-0-0--0---|

First Verse
   (A Chord)
   v v  v  v^ v v  v  v v  v  v^ v v  v  v v  v  v^ v v  v  v v  v  v^ v v  v
e|-0-0--0--00-0-0--0--0-0--0--00-0-0--0--0-0--0--00-0-0--0--0-0--0--00-0-0--0---|
B|-2-2--2--22-2-2--2--2-2--2--22-2-2--2--2-2--2--22-2-2--2--2-2--2--22-2-2--2---|
G|-2-2--2--22-2-2--2--2-2--2--22-2-2--2--2-2--2--22-2-2--2--2-2--2--22-2-2--2---|
D|-2-2--2--22-2-2--2--2-2--2--22-2-2--2--2-2--2--22-2-2--2--2-2--2--22-2-2--2---|
A|-0-0--0--00-0-0--0--0-0--0--00-0-0--0--0-0--0--00-0-0--0--0-0--0--00-0-0--0---|
E|------------------------------------------------------------------------------|
   (E Chord)
   v v  v  v^ v v  v  v v  v  v^ v v  v  v v  v  v^ v v  v  v v  v  v^ v v  v
e|-0-0--0--00-0-0--0--0-0--0--00-0-0--0--0-0--0--00-0-0--0--0-0--0--00-0-0--0---|
B|-0-0--0--00-0-0--0--0-0--0--00-0-0--0--0-0--0--00-0-0--0--0-0--0--00-0-0--0---|
G|-1-1--1--11-1-1--1--1-1--1--11-1-1--1--1-1--1--11-1-1--1--1-1--1--11-1-1--1---|
D|-2-2--2--22-2-2--2--2-2--2--22-2-2--2--2-2--2--22-2-2--2--2-2--2--22-2-2--2---|
A|-2-2--2--22-2-2--2--2-2--2--22-2-2--2--2-2--2--22-2-2--2--2-2--2--22-2-2--2---|
E|-0-0--0--00-0-0--0--0-0--0--00-0-0--0--0-0--0--00-0-0--0--0-0--0--00-0-0--0---|
   (A Chord)
   v v  v  v^ v v  v  v v  v  v^ v v  v  v v  v  v^ v v  v  v v  v  v^ v v  v
e|-0-0--0--00-0-0--0--0-0--0--00-0-0--0--0-0--0--00-0-0--0--0-0--0--00-0-0--0---|
B|-2-2--2--22-2-2--2--2-2--2--22-2-2--2--2-2--2--22-2-2--2--2-2--2--22-2-2--2---|
G|-2-2--2--22-2-2--2--2-2--2--22-2-2--2--2-2--2--22-2-2--2--2-2--2--22-2-2--2---|
D|-2-2--2--22-2-2--2--2-2--2--22-2-2--2--2-2--2--22-2-2--2--2-2--2--22-2-2--2---|
A|-0-0--0--00-0-0--0--0-0--0--00-0-0--0--0-0--0--00-0-0--0--0-0--0--00-0-0--0---|
E|------------------------------------------------------------------------------|
   (E Chord)
   v v  v  v^ v v  v  v v  v  v^ v v  v  v v  v  v^ v v  v  v v  v  v^ v v  v
e|-0-0--0--00-0-0--0--0-0--0--00-0-0--0--0-0--0--00-0-0--0--0-0--0--00-0-0--0---|
B|-0-0--0--00-0-0--0--0-0--0--00-0-0--0--0-0--0--00-0-0--0--0-0--0--00-0-0--0---|
G|-1-1--1--11-1-1--1--1-1--1--11-1-1--1--1-1--1--11-1-1--1--1-1--1--11-1-1--1---|
D|-2-2--2--22-2-2--2--2-2--2--22-2-2--2--2-2--2--22-2-2--2--2-2--2--22-2-2--2---|
A|-2-2--2--22-2-2--2--2-2--2--22-2-2--2--2-2--2--22-2-2--2--2-2--2--22-2-2--2---|
E|-0-0--0--00-0-0--0--0-0--0--00-0-0--0--0-0--0--00-0-0--0--0-0--0--00-0-0--0---|

Chorus
e|-------------------------------------------------------------------------|
B|-------------------------------------------------------------------------|
G|-------------------2-2-2-2-2-2-2-2---------------------4-4-4-4-4-4-4-4---|
D|-4-4-4-4-4-4-4-4---2-2-2-2-2-2-2-2---2-2-2-2-2-2-2-2---4-4-4-4-4-4-4-4---|
A|-4-4-4-4-4-4-4-4---0-0-0-0-0-0-0-0---2-2-2-2-2-2-2-2---2-2-2-2-2-2-2-2---|
E|-2-2-2-2-2-2-2-2---------------------0-0-0-0-0-0-0-0---------------------|

e|-------------------------------------------------------------------------|
B|-------------------------------------------------------------------------|
G|-------------------2-2-2-2-2-2-2-2---------------------4-4-4-4-4-4-4-4---|
D|-4-4-4-4-4-4-4-4---2-2-2-2-2-2-2-2---2-2-2-2-2-2-2-2---4-4-4-4-4-4-4-4---|
A|-4-4-4-4-4-4-4-4---0-0-0-0-0-0-0-0---2-2-2-2-2-2-2-2---2-2-2-2-2-2-2-2---|
E|-2-2-2-2-2-2-2-2---------------------0-0-0-0-0-0-0-0---------------------|

Second Verse
   (A Chord)
   v v  v  v^ v v  v  v v  v  v^ v v  v  v v  v  v^ v v  v  v v  v  v^ v v  v
e|-0-0--0--00-0-0--0--0-0--0--00-0-0--0--0-0--0--00-0-0--0--0-0--0--00-0-0--0---|
B|-2-2--2--22-2-2--2--2-2--2--22-2-2--2--2-2--2--22-2-2--2--2-2--2--22-2-2--2---|
G|-2-2--2--22-2-2--2--2-2--2--22-2-2--2--2-2--2--22-2-2--2--2-2--2--22-2-2--2---|
D|-2-2--2--22-2-2--2--2-2--2--22-2-2--2--2-2--2--22-2-2--2--2-2--2--22-2-2--2---|
A|-0-0--0--00-0-0--0--0-0--0--00-0-0--0--0-0--0--00-0-0--0--0-0--0--00-0-0--0---|
E|------------------------------------------------------------------------------|
   (E Chord)
   v v  v  v^ v v  v  v v  v  v^ v v  v  v v  v  v^ v v  v  v v  v  v^ v v  v
e|-0-0--0--00-0-0--0--0-0--0--00-0-0--0--0-0--0--00-0-0--0--0-0--0--00-0-0--0---|
B|-0-0--0--00-0-0--0--0-0--0--00-0-0--0--0-0--0--00-0-0--0--0-0--0--00-0-0--0---|
G|-1-1--1--11-1-1--1--1-1--1--11-1-1--1--1-1--1--11-1-1--1--1-1--1--11-1-1--1---|
D|-2-2--2--22-2-2--2--2-2--2--22-2-2--2--2-2--2--22-2-2--2--2-2--2--22-2-2--2---|
A|-2-2--2--22-2-2--2--2-2--2--22-2-2--2--2-2--2--22-2-2--2--2-2--2--22-2-2--2---|
E|-0-0--0--00-0-0--0--0-0--0--00-0-0--0--0-0--0--00-0-0--0--0-0--0--00-0-0--0---|
   (A Chord)
   v v  v  v^ v v  v  v v  v  v^ v v  v  v v  v  v^ v v  v  v v  v  v^ v v  v
e|-0-0--0--00-0-0--0--0-0--0--00-0-0--0--0-0--0--00-0-0--0--0-0--0--00-0-0--0---|
B|-2-2--2--22-2-2--2--2-2--2--22-2-2--2--2-2--2--22-2-2--2--2-2--2--22-2-2--2---|
G|-2-2--2--22-2-2--2--2-2--2--22-2-2--2--2-2--2--22-2-2--2--2-2--2--22-2-2--2---|
D|-2-2--2--22-2-2--2--2-2--2--22-2-2--2--2-2--2--22-2-2--2--2-2--2--22-2-2--2---|
A|-0-0--0--00-0-0--0--0-0--0--00-0-0--0--0-0--0--00-0-0--0--0-0--0--00-0-0--0---|
E|------------------------------------------------------------------------------|
   (E Chord)
   v v  v  v^ v v  v  v v  v  v^ v v  v  v v  v  v^ v v  v  v v  v  v^ v v  v
e|-0-0--0--00-0-0--0--0-0--0--00-0-0--0--0-0--0--00-0-0--0--0-0--0--00-0-0--0---|
B|-0-0--0--00-0-0--0--0-0--0--00-0-0--0--0-0--0--00-0-0--0--0-0--0--00-0-0--0---|
G|-1-1--1--11-1-1--1--1-1--1--11-1-1--1--1-1--1--11-1-1--1--1-1--1--11-1-1--1---|
D|-2-2--2--22-2-2--2--2-2--2--22-2-2--2--2-2--2--22-2-2--2--2-2--2--22-2-2--2---|
A|-2-2--2--22-2-2--2--2-2--2--22-2-2--2--2-2--2--22-2-2--2--2-2--2--22-2-2--2---|
E|-0-0--0--00-0-0--0--0-0--0--00-0-0--0--0-0--0--00-0-0--0--0-0--0--00-0-0--0---|

Chorus
e|-------------------------------------------------------------------------|
B|-------------------------------------------------------------------------|
G|-------------------2-2-2-2-2-2-2-2---------------------4-4-4-4-4-4-4-4---|
D|-4-4-4-4-4-4-4-4---2-2-2-2-2-2-2-2---2-2-2-2-2-2-2-2---4-4-4-4-4-4-4-4---|
A|-4-4-4-4-4-4-4-4---0-0-0-0-0-0-0-0---2-2-2-2-2-2-2-2---2-2-2-2-2-2-2-2---|
E|-2-2-2-2-2-2-2-2---------------------0-0-0-0-0-0-0-0---------------------|

e|---------------------------------------------------------------------------|
B|---------------------------------------------------------------------------|
G|-------------------2-2-2-2-2-2-2-2---------------------4-4-4-4-4-4-4-4-----|
D|-4-4-4-4-4-4-4-4---2-2-2-2-2-2-2-2---2-2-2-2-2-2-2-2--4-4-4-4-4-4-4-4------|
A|-4-4-4-4-4-4-4-4---0-0-0-0-0-0-0-0---2-2-2-2-2-2-2-2---2-2-2-2-2-2-2-2-----|
E|-2-2-2-2-2-2-2-2---------------------0-0-0-0-0-0-0-0-----------------------|

Bridge
e|---------------------------------------------------------------------------|
B|---------------------------------------------------------------------------|
G|-2-2-2-2-2-2-2-2-2-2-2-2-2-2-2-2-------------------------------------------|
D|-2-2-2-2-2-2-2-2-2-2-2-2-2-2-2-2-2-2-2-2-2-2-2-2-2-2-2-2-2-2-2-2-----------|
A|-0-0-0-0-0-0-0-0-0-0-0-0-0-0-0-0-2-2-2-2-2-2-2-2-2-2-2-2-2-2-2-2-----------|
E|---------------------------------0-0-0-0-0-0-0-0-0-0-0-0-0-0-0-0-----------|

e|---------------------------------------------------------------------------|
B|---------------------------------------------------------------------------|
G|-2-2-2-2-2-2-2-2-2-2-2-2-2-2-2-2-------------------------------------------|
D|-2-2-2-2-2-2-2-2-2-2-2-2-2-2-2-2-2-2-2-2-2-2-2-2-2-2-2-2-2-2-2-2-----------|
A|-0-0-0-0-0-0-0-0-0-0-0-0-0-0-0-0-2-2-2-2-2-2-2-2-2-2-2-2-2-2-2-2-----------|
E|---------------------------------0-0-0-0-0-0-0-0-0-0-0-0-0-0-0-0-----------|

Chorus
e|-------------------------------------------------------------------------|
B|-------------------------------------------------------------------------|
G|-------------------2-2-2-2-2-2-2-2---------------------4-4-4-4-4-4-4-4---|
D|-4-4-4-4-4-4-4-4---2-2-2-2-2-2-2-2---2-2-2-2-2-2-2-2---4-4-4-4-4-4-4-4---|
A|-4-4-4-4-4-4-4-4---0-0-0-0-0-0-0-0---2-2-2-2-2-2-2-2---2-2-2-2-2-2-2-2---|
E|-2-2-2-2-2-2-2-2---------------------0-0-0-0-0-0-0-0---------------------|

e|-------------------------------------------------------------------------|
B|-------------------------------------------------------------------------|
G|-------------------2-2-2-2-2-2-2-2---------------------4-4-4-4-4-4-4-4---|
D|-4-4-4-4-4-4-4-4---2-2-2-2-2-2-2-2-2-2-2-2-2-2-2-2-----4-4-4-4-4-4-4-4---|
A|-4-4-4-4-4-4-4-4---0-0-0-0-0-0-0-0---2-2-2-2-2-2-2-2---2-2-2-2-2-2-2-2---|
E|-2-2-2-2-2-2-2-2---------------------0-0-0-0-0-0-0-0---------------------|


| /  slide up
| \  slide down
| h  hammer-on
| p  pull-off
| ~  vibrato
| +  harmonic
| x  Mute note
            
Submit corrections

comments powered by Disqus
↑ Back to top | Brad Sucks Tabs for Time To Take Out The Trash. Lyrics for acoustic guitar and electric guitar. 1 Tablatures and chords are parodies/interpretations of the original songs. You may use it for private study, scholarship, research or language learning purposes only