» » »

Theres Something Wrong Tabs (ver.1)

Artists:  A B C D E F G H I J K L M N O P Q R S T U V W X Y Z # 

Theres Something Wrong Tabs (ver.1)

Brad Sucks
Rating:
0/5 (0 votes)

Hard to play? Try these video lessons and learn fast.
                (Intro)
    Sorry that it's just the intro, i made this at *checks watch* 11:57 Pm.  I'll 
try and make tabs of the rest of the song, maybe even the solo if I get to it. ;)



                 /                                  \
|---------------|------------------------------------|
|-1--1-1--1-1-1-|--------------3--3-3--3-3-3---------|
|-2--2-2--2-2-2-|3--3-3--3-3-3-4--4-4--4-4-4---------|
|-4--4-4--4-4-4-|4--4-4--4-4-4-4--4-4--4-4-4---------|
|-5--5-5--5-5-5-|4--4-4--4-4-4-2--2-2--2-2-2---------|
|---------------|2--2-2--2-2-2-----------------------|
                 \            repeat x 2            / 

|----------------------------------------------------|
|----------------------------------------------------|
|-6--6----6-6-6-6-6-6-6-6-6-6-6----------------------|
|-7--7-7--7-7-7-7-7-7-7-7-7-7-7----------------------|
|-7--7-7--7-7-7-7-7-7-7-7-7-7-7----------------------|
|-5--5-5--5-5-5-5-5-5-5-5-5-5-5----------------------| then back to beginning
            
Hard to play? Try these video lessons and learn fast. | Correct




comments powered by Disqus
↑ Back to top | Tablatures and chords are parodies/interpretations of the original songs. You may use it for private study, scholarship, research or language learning purposes only