» » »

Brad Paisley, Start A Band Intro Tabs

Artists:  A B C D E F G H I J K L M N O P Q R S T U V W X Y Z # 

Start A Band Intro Tabs

(ver. 1)
Brad Paisley Tabs
 Rating:
4/5 (4 votes)
    Start A Band lessons Tabs too difficult? Try these video lessons and learn fast

WWW.AZCHORDS.COM | Brad Paisley Tabs - Start A Band Tabs (ver. 1)


                (Intro)
----------------------------------------------------------------------------
                    Start A Band - Brad Paisley
----------------------------------------------------------------------------
Tuning: Standard
::UPDATE:: 11/14/08 - Updated a couple notes that I think sound a little better.
::UPDATE:: Updated a couple more things.. I'll add the rest of the song soon!
Best if played on a Tele, obviously.
    *On these 0b2's you have to bend the G string above the nut. (G Bender)
e|-----------------*----*----*-------------------|
B|-----------------1----1----1-------------------|
G|-----------------0b2--0b2--2p0-----------------|
D|-----------3--------------------3/5--3---------|
A|-----3--5-----3-------------------------3~--1--|
E|--1--------------------------------------------|

e|---------------------------------------------------------|
B|------------------------------------6--6-----------------|
G|---------------------------------5-----5b----------------|
D|----------3-----5-----5-----5/7------------7--5\3--------|
A|----3--5-----3-----3-----3-------------------------5--3--|
E|-1-------------------------------------------------------|

e|-----------------------------------------------------------------(12)--------|
B|-----6---------------6-------------------------------------------(12)--------|
G|--------9b10r9~~--5~------------------------------------5--------------------|
D|------------------------8-7~--------------3/5-5-5-3-5/7---7/5--3-------------|
A|------------------------------5----------3-----------------------------3-----|
E|-1-------------------------------1--3/5---------------------------------3-1--|

| /  slide up
| \  slide down
| p  pull-off
| ~  vibrato
| b  bend
| r  return bend
============================================================================
            
Submit corrections

↑ Back to top | Brad Paisley Tabs for Start A Band. Lyrics for acoustic guitar and electric guitar. Tablatures and chords are parodies/interpretations of the original songs. You may use it for private study, scholarship, research or language learning purposes only