» » »

Start A Band Tabs (ver.4)

Artists:  A B C D E F G H I J K L M N O P Q R S T U V W X Y Z # 

Start A Band Tabs (ver.4)

Brad Paisley
Rating:
0/5 (0 votes)

Hard to play? Try these video lessons and learn fast.
                Brad Paisley (w Keith Urban)  - Start a Band



This is my first tab. Be nice. It should be pretty accurate. I'll post sound bites eventually. 
Let me know what y'all think.

-----------------------------------------------------
-------------------1------1-----1--------------------
-------------------0h2---0h2--2p0--------------------
-----------3--------------------------3/5--3---------
----3h5-----3---------------------------------3r--1--
-1---------------------------------------------------

-------------------------------------------------------
--------------------------------6----------------------
------------------------------5--5b--5-----------------
---------3---5-----5----5/7-----------7\5--3-----------
----3/5---3-----3---3--------------------------5--3----
-1-----------------------------------------------------

----------------------------------------------------------
----6-----------6-----------------------------------------
------9br--9-5-----------------------------------5--------
-------------------8-7-0----------3--5-5-5-3-5/7---7\5--3-
----------------------------------------------------------
-1------------------------1---3/5-------------------------

----------------------------
----------------------------
----------------------------
----------------------------
--3-------------------------
----3r---1------------------

"I never was a straight-laced straight A student..."

            
Hard to play? Try these video lessons and learn fast. | Correct




comments powered by Disqus
↑ Back to top | Tablatures and chords are parodies/interpretations of the original songs. You may use it for private study, scholarship, research or language learning purposes only