» » »

Bracken Cell, We Are The Dead Tabs (ver.1)

Artists:  A B C D E F G H I J K L M N O P Q R S T U V W X Y Z # 

We Are The Dead Tabs (ver.1)

Bracken Cell Tabs
Rating:
0/5 (0 votes)
We Are The Dead lessons Tabs too difficult? Try these video lessons and learn fast
                Hey there, if you have stumbled onto this tab and are wondering whom Bracken Cell are then here is some info. Bracken Cell is currently a thrash metal band consisting of two guitarists, we are highly influenced by Metallica and are looking for a drummer and bassist. We are very determined and hope to go far, we are both 15 years old and live in Stoke on Trent – England. If you play drums or bass and live in our area then contact me at the following E-mail address:


Thank You.

Intro:
e------------------------------------------
B------------------------------------------
G------------------------------------------
D------------------------------------------
A--6-—--5----4----3----2.------------------
E--4----3----2----1----0.------------------

e------------------------------------------
B------------------------------------------
G------------------------------------------
D------------------------------------------
A---—--5-----6-----5-----3-----2-----------
E--0-0---0-0---0-0---0-0---0-0-------------

e------------------------------------------
B------------------------------------------
G------------------------------------------
D------------------------------------------
A---—--5-----6-----5-----3-----2--3--------
E--0-0---0-0---0-0---0-0---0-0-------------

e------------------------------------------
B------------------------------------------
G------------------------------------------
D------------------------------------------
A---—--5-----6-----5-----3-------2---------
E--0-0---0-0---0-0---0-0---0-0---0---------

e------------------------------------------
B------------------------------------------
G------------------------------------------
D------------------------------------------
A---—--5-----6-----5-----3------4--5-------
E--0-0---0-0---0-0---0-0---0-0--2--3-------

e------------------------------------------
B------------------------------------------
G------------------------------------------
D------------------------------------------
A--6-—--5----4----3----2.------------------
E--4----3----2----1----0.------------------


Verse:
e------------------------------------------
B------------------------------------------
G------------------------------------------
D------------------------------------------
A--5-—----4------7--6--7--5--4-------------
E--3-0-0--2-0-0--5--4--5--3--2-------------




e------------------------------------------
B------------------------------------------
G------------------------------------------
D------------------------------------------
A--5-—----4------5-------7h8---------------
E--3-0-0--2-0-0--3--0-0--------------------

e------------------------------------------
B------------------------------------------
G------------------------------------------
D------------------------------------------
A--5-—----4------7--6--7--5--4-------------
E--3-0-0--2-0-0--5--4--5--3--2-------------

e------------------------------------------
B------------------------------------------
G------------------------------------------
D------------------------------------------
A--5-—----4------5-------3.----------------
E--3-0-0--2-0-0--3--0-0—-1.----------------

Chorus:
e------------------------------------------
B------------------------------------------
G------------------------------------------
D----------4-------------------------4---
A--5-—4----2-----4--------3--5--4----2------
E--3--2--0----0--2--0--0--1--3--2--0--------

e------------------------------------------
B------------------------------------------
G------------------------------------------
D------------------------------------------
A--6-—--5----4----3----2.------------------
E--4----3----2----1----0.------------------
            

comments powered by Disqus
↑ Back to top | Bracken Cell Tabs for We Are The Dead. Lyrics for acoustic guitar and electric guitar. Tablatures and chords are parodies/interpretations of the original songs. You may use it for private study, scholarship, research or language learning purposes only