» » »

Bracken Cell, Trench Foot Tabs (ver.1)

Artists:  A B C D E F G H I J K L M N O P Q R S T U V W X Y Z # 

Trench Foot Tabs (ver.1)

Bracken Cell Tabs
 Rating:
4/5 (4 votes)
Trench Foot lessons Tabs too difficult? Try these video lessons and learn fast
1
                Hey there, if you have stumbled onto this tab and are wondering whom Bracken Cell are then here is some info. Bracken Cell is currently a thrash metal band consisting of two guitarists, we are highly influenced by Metallica and are looking for a drummer and bassist. We are very determined and hope to go far, we are both 15 years old and live in Stoke on Trent – England. If you play drums or bass and live in our area then contact me at the following E-mail address:


Thank You.

Intro and Verse:
e-----------------------------------------
B-----------------------------------------
G-----------------------------------------
D------4--------4--------4--------4-------
A---—4---4----4---4----4---4----4---4-----
E--2--------2--------3--------0-----------

e-----------------------------------------
B-----------------------------------------
G-----------------------------------------
D------4--------4--------4--------4-------
A---—4---4----4---4----4---4----4---4-----
E--2--------2--------3--------0-----------

e-----------------------------------------
B-----------------------------------------
G-----------------------------------------
D------5--------4--------3--------2-------
A---—5---5----4---4----3---3----2---2-----
E--3--------2--------1--------0-----------

e-----------------------------------------
B-----------------------------------------
G-----------------------------------------
D------5--------4--------3--------2-------
A---—5---5----4---4----3---3----2---2-----
E--3--------2--------1--------0-----------

e-----------------------------------------
B-----------------------------------------
G-----------------------------------------
D------4--------4--------4--------4-------
A---—4---4----4---4----4---4----4---4-----
E--2--------2--------3--------0-----------

e-----------------------------------------
B-----------------------------------------
G-----------------------------------------
D------5--------5--------2--------3-------
A---—5---5----5---5----2---2----3---3-----
E--3--------3--------4--------1-----------

e-----------------------------------------
B-----------------------------------------
G-----------------------------------------
D------5--------5--------2--------3-------
A---—5---5----5---5----2---2----3---3-----
E--3--------3--------4--------1-----------

e-----------------------------------------
B-----------------------------------------
G-----------------------------------------
D------5--------5--------2--------7-------
A---—5---5----5---5----2---2----7---7-----
E--3--------3--------4--------5-----------

e-----------------------------------------
B-----------------------------------------
G-----------------------------------------
D------5--------5--------2--------7-------
A---—5---5----5---5----2---2----7---7-----
E--3--------3--------4--------5-----------


Break into Chords.
Chorus:
e-----------------------------------------
B-----------------------------------------
G-----------------------------------------
D--4--4-4-4--4-4-4-4---5-5-5-5--4-4--3-3--
A--4-—4-4-4--4-4-4-4---5-5-5-5--4-4--3-3--
E--2--2-2-2--3-3-0-0---3-3-3-3--2-2--1-1--

e-----------------------------------------
B-----------------------------------------
G-----------------------------------------
D--4--4-4-4--4-4-4-4---5-5-5-5--4-4--7-7--
A--4-—4-4-4--4-4-4-4---5-5-5-5--4-4--7-7--
E--2--2-2-2--3-3-0-0---3-3-3-3--2-2--5-5--

Heavy Metal Interlude:
e--------------------------------
B--------------------------------
G--------------------------------
D--5-x-x-5-5-5-5--4-4---7-7------
A--5-x—x-5-5-5-5--4-4---7-7------
E--3-x-x-3-3-3-3--2-2---5-5------

e--------------------------------
B--------------------------------
G--------------------------------
D--5-5-5-5—-4-4-4-4--3-3-3-3--2--
A--5-5-5-5--4-4-4-4--3-3-3-3--2--
E--3-3-3-3--2-2-2-2--1-1-1-1--0--

Solo: Lick from Lyrics Building into Full Scale Brutal Assault.
e------------------------------------------------
B------------------------------------------------
G—9b12-10-------9b12-10-------9b12-10----10~~----
D----------12-9---------12-10---------12---------
A---—--------------------------------------------
E------------------------------------------------

e------------------------------------------------9-10-12
B----------------------------------------9-11-12--------
G-12-10-9------------------------9-10-12----------------
D---------11-12-9-8~~-8-9-8-11-12-----------------------
A---—---------------------------------------------------
E-------------------------------------------------------

Structure:
Intro
Verse
Heavy Metal Interlude
Verse
Heavy Metal Interlude
Chorus
Verse
Chorus 
Heavy Metal Interlude
Instrumental.
            
Submit corrections

comments powered by Disqus
↑ Back to top | Bracken Cell Tabs for Trench Foot. Lyrics for acoustic guitar and electric guitar. 1 Tablatures and chords are parodies/interpretations of the original songs. You may use it for private study, scholarship, research or language learning purposes only