» » »

Bracken Cell, The Virtue Of Death Tabs (ver.1)

Artists:  A B C D E F G H I J K L M N O P Q R S T U V W X Y Z # 

The Virtue Of Death Tabs (ver.1)

Bracken Cell Tabs
Rating:
0/5 (0 votes)
The Virtue Of Death lessons Tabs too difficult? Try these video lessons and learn fast
                Information:
Pan used on intro, guitar one plays through twice then guitar two comes in and plays twice. 32nd Notes on Intro.
Pan used the same and start of Pre Verse to give it a metal effect.
Tuning: Standard.

Hey there, if you have stumbled onto this tab and are wondering whom Bracken Cell are then here is some info. Bracken Cell is currently a thrash metal band consisting of two guitarists, we are highly influenced by Metallica and are looking for a drummer and bassist. We are very determined and hope to go far, we are both 15 years old and live in Stoke on Trent – England. If you play drums or bass and live in our area then contact me at the following E-mail address:


Intro:
e------------------------------
B------------------------------
G------------------------------
D--4—-5—-4--7--6--9--8--7------
A--4--5—-4--7--6--9--8--7------
E--2--3--2--5--4--7--6--5------

Everything stops then the lead guitar plays:
Shred Solo:
e---------------------------------------------------
B--------------------------12-13-15—-17b19~~~~~~~---
G--------------------13-14--------------------------
D-----------12-14-15--------------------------------
A--12-14-15-----------------------------------------
E---------------------------------------------------

Pre Verse:
e-----------------------------------------
B-----------------------------------------
G-----------------------------------------
D-----------------------------------------
A--4-x—x-x-x-x-x-5--4-x-x-x-x-x-x--7-6----
E--2-x-x-x-x-x-x-3--2-x-x-x-x-x-x--5-4----

e-----------------------------------------
B-----------------------------------------
G-----------------------------------------
D-----------------------------------------
A--4-x—x-x-x-x-x-5--4-x-x-x-x-x-x--9-8-7--
E--2-x-x-x-x-x-x-3--2-x-x-x-x-x-x--7-6-5--

Guitar Fill:
e---12-14-15-----------------------------
B------------12-13-15-12h13p12-----13b---
G-------------------------------14-------
D----------------------------------------
A----------------------------------------
E----------------------------------------

Spanish Death Metal Scale Lick.
Yet To Come !

Verse:
e-------------------------------------------------------
B-------------------------------------------------------
G-------------------------------------------------------
D-2-x-x--4-x-x-5-x-x-4-x-x--2-x-x-4-x-x-5-x-x-4-x-x-----
A-2-x-x—-4-x-x-5-x-x-4-x-x--2-x-x-4-x-x-5-x-x-4-x-x-----
E-0-x-x--2-x-x-3-x-x-2-x-x--0-x-x-2-x-x-3-x-x-2-x-x-----

e----------------------
B----------------------
G----------------------
D—(8)---------(4)------
A—(8)-—-------(4)------
E—(6)---------(2)------

Chorus:
e-------------------------------------
B-------------------------------------
G----------5-x-x---3-x-x--------------
D--4-x-x---5-x-x---3-x-x---(4)--------
A--4-x—x---3-x-x---1-x-x---(4)--------
E--2-x-x-------------------(2)--------

e-------------------
B-------------------
G-------------------
D--4-x-x-4----3-----
A--4-x-x-4----3-----
E--2-x-x-2----1-----

Pre Verse:
e--------------------------------------
B--------------------------------------
G--------------------------------------
D------4-----4------4-----4-3-5-4------
A--0-3---0-3----0-3---0-3--------------
E--------------------------------------

e--------------------------------------
B--------------------------------------
G--------------------------------------
D------4-----4------4-----4-3----------
A--0-3---0-3----0-3---0-3-----4-3------
E--------------------------------------

Verse:
e-------------------------------------------------------
B-------------------------------------------------------
G-------------------------------------------------------
D-2-x-x--4-x-x-5-x-x-4-x-x--2-x-x-4-x-x-5-x-x-4-x-x-----
A-2-x-x—-4-x-x-5-x-x-4-x-x--2-x-x-4-x-x-5-x-x-4-x-x-----
E-0-x-x--2-x-x-3-x-x-2-x-x--0-x-x-2-x-x-3-x-x-2-x-x-----

e----------------------
B----------------------
G----------------------
D—(8)---------(4)------
A—(8)-—-------(4)------
E—(6)---------(2)------

Chorus:
e-------------------------------------
B-------------------------------------
G----------5-x-x---3-x-x--------------
D--4-x-x---5-x-x---3-x-x---(4)--------
A--4-x—x---3-x-x---1-x-x---(4)--------
E--2-x-x-------------------(2)--------

e-------------------
B-------------------
G-------------------
D--4-x-x-4----3-----
A--4-x-x-4----3-----
E--2-x-x-2----1-----


·	Repeat whole song instrumentally.
            
Submit corrections

comments powered by Disqus
↑ Back to top | Bracken Cell Tabs for The Virtue Of Death. Lyrics for acoustic guitar and electric guitar. Tablatures and chords are parodies/interpretations of the original songs. You may use it for private study, scholarship, research or language learning purposes only