» » »

Bracken Cell, Speed Metal Tabs (ver.1)

Artists:  A B C D E F G H I J K L M N O P Q R S T U V W X Y Z # 

Speed Metal Tabs (ver.1)

Bracken Cell Tabs
Rating:
0/5 (0 votes)
Speed Metal lessons Tabs too difficult? Try these video lessons and learn fast
                Intro:     
E |---------------------------------------------------|
B |---------------------------------------------------|
G |---------------------------------------------------|
D |--------4--------5-------4--------3----------------|
A |--------2--------3-------2--------1----------------|
E |--0-0-0----0-0-0---0-0-0----0-0-0------------------|

E |---------------------------------------------------|
B |---------------------------------------------------|
G |---------------------------------------------------|
D |--------4--------5-------4--3----------------------|
A |--------2--------3-------2--1----------------------|
E |--0-0-0----0-0-0---0-0-0---------------------------|

E |---------------------------------------------------|
B |---------------------------------------------------|
G |---------------------------------------------------|
D |---------------------------------------------------|
A |---7-/////////////////////////////////////---------|
E |---------------------------------------------------|

Pre Verse 1.
E |-------------------------------------------------------|
B |-------------------------------------------------------|
G |---------------5-s-4--------------5-s-6----------------|
D |---------------5-s-4--------------5-s-6----------------|
A |---------------3-s-2--------------3-s-4----------------|
E |---0-0-0-0-0-0--------0-0-0-0-0-0---------0-0-0-0-0-0--|

E |-------------------------|
B |-------------------------|                 
G |--5-s-4--------------7---|
D |--5-s-4--------------7---|
A |--3-s-2--------------5---|
E |---------0-0-0-0-0-0-----|

Pre Verse 2.
E |-------------------------------------------------------|
B |-------------------------------------------------------|
G |---------------5-s-4--------------5-s-6----------------|
D |---------------5-s-4--------------5-s-6----------------|
A |---------------3-s-2--------------3-s-4----------------|
E |---0-0-0-0-0-0--------0-0-0-0-0-0---------0-0-0-0-0-0--|

E |-------------------------|
B |-------------------------|                 
G |--5-s-4--------------3---|
D |--5-s-4--------------3---|
A |--3-s-2--------------1---|
E |---------0-0-0-0-0-0-----|

Last Time Before Verse.
E |------------------------------------------------------|
B |------------------------------------------------------|
G |---------------5-s-4--------------5-s-6---------------|
D |---------------5-s-4--------------5-s-6---------------|
A |---------------3-s-2--------------3-s-4---------------|
E |---0-0-0-0-0-0--------0-0-0-0-0-0---------0-0-0-0-0-0-|

E |---------------------------------------|
B |---------------------------------------|
G |--5-s-4--------------5--6--7-----------|
D |--5-s-4--------------5--6--7-----------|
A |--3-s-2--------------3--4--5-----------|
E |---------0-0-0-0-0-0-------------------|

Verse.
E |-----------------------------------------------|
B |-----------------------------------------------|
G |-------5-------4------5-------7--6--5----------|
D |-------5-------4------5-------7--6--5----------|
A |-------3-------2------3-------5--4--3----------|
E |---0-0----0-0-----0-0----0-0-------------------|

E |-----------------------------------------------|
B |-----------------------------------------------|
G |-------5-------4------5-------7-------5--------|
D |-------5-------4------5-------7-------5--------|
A |-------3-------2------3-------5-------3--------|
E |---0-0----0-0-----0-0----0-0-----0-0-----------|

E |-----------------------------------------------|
B |-----------------------------------------------|
G |-------------------5~------------------4.------|
D |-------------------5~------------------4.------|
A |-------------------3~------------------2.------|
E |---0-0-0-0-0-0-0-0-----0-0-0-0-0-0-0-0---------|

E |-----------------------------------------------|
B |-----------------------------------------------|
G |-------------------5~------------------7--6--5-|
D |-------------------5~------------------7--6--5-|
A |-------------------3~------------------5--4--3-|
E |---0-0-0-0-0-0-0-0-----0-0-0-0-0-0-0-0---------|

E |-----------------------------------------------|
B |-----------------------------------------------|
G |-------------------5~------------------4.------|
D |-------------------5~------------------4.------|
A |-------------------3~------------------2.------|
E |---0-0-0-0-0-0-0-0-----0-0-0-0-0-0-0-0---------|

E |-----------------------------------------------|
B |-----------------------------------------------|
G |-------------------5~------------------7--6--5-|
D |-------------------5~------------------7--6--5-|
A |-------------------3~------------------5--4--3-|
E |---0-0-0-0-0-0-0-0-----0-0-0-0-0-0-0-0---------|

Strike Zero’s Double Time. 16 Notes.
Bridge:
E |-----------------------------------------------|
B |-----------------------------------------------|
G |-----------------------------------------------|
D |-----------------------------------------------|
A |-2---------------------------------------------|
E |-0-0-0-0-0-0-0-0-0-0-0-0-0-0-0-0-0-0-0-0-0-0-0-|

E |-----------------------------------------------|
B |-----------------------------------------------|
G |-----------------------------------------------|
D |-----------------------------------------------|
A |-5-5-5-5-5--4-4-4-4-4---3-3-3-3-3-3-3-3-3------|
E |-3-3-3-3-3--2-2-2-2-2---1-1-1-1-1-1-1-1-1------|

E |-----------------------------------------------|
B |-----------------------------------------------|
G |-----------------------------------------------|
D |-2---------------------------------------------|
A |-0-0-0-0-0-0-0-0-0-0-0-0-0-0-0-0-0-0-0-0-0-0-0-|
E |-----------------------------------------------|

E |-----------------------------------------------|
B |-----------------------------------------------|
G |-----------------------------------------------|
D |-5-5-5-5-5--4-4-4-4-4--3-3-3-3-3-3-3-3---------|
A |-3-3-3-3-3--2-2-2-2-2--1-1-1-1-1-1-1-1---------|
E |-----------------------------------------------|

E |-----------------------------------------------|
B |-----------------------------------------------|
G |-----------------------------------------------|
D |-5-5-5-5-5--4-4-4-4-4--3-3-3-3-3-3-3-3---------|
A |-3-3-3-3-3--2-2-2-2-2--1-1-1-1-1-1-1-1---------|
E |-----------------------------------------------|

Order and Arrangements:

Intro.
Pre Verse One.
Pre Verse Two.
Intro.                                              Drums Enter.
Pre Verse One.
Pre Verse Two.
Verse.
Pre Verse.
Pre Verse Two.
Verse.
Chorus.
Bridge.
Pre Verse One.
Pre Verse Two.
Verse
Chorus.
Intro.

Both Guitars Standard Tuning.
            
Submit corrections

comments powered by Disqus
↑ Back to top | Bracken Cell Tabs for Speed Metal. Lyrics for acoustic guitar and electric guitar. Tablatures and chords are parodies/interpretations of the original songs. You may use it for private study, scholarship, research or language learning purposes only