» » »

Night Of The Vampires Tabs (ver.1)

Artists:  A B C D E F G H I J K L M N O P Q R S T U V W X Y Z # 

Night Of The Vampires Tabs (ver.1)

Bracken Cell
Rating:
0/5 (0 votes)

Hard to play? Try these video lessons and learn fast.
                NIGHT OF THE VAMPIRES

Hey there, if you have stumbled onto this tab and are wondering whom Bracken Cell are then here is some info. Bracken Cell is currently a thrash metal band consisting of two guitarists, we are highly influenced by Metallica and are looking for a drummer and bassist. We are very determined and hope to go far, we are both 15 years old and live in Stoke on Trent – England. If you play drums or bass and live in our area then contact me at the following E-mail address:


Tune down to D G C F A D or just keep it at normal, sounds good either way. You can even try it in Drop D or C if you like but you will have to change the notes accordingly to their correct counterparts. i.e E5 will equal open strings on DAD tuning.

INTRO ONE:
e-------------------------------
B-------------------------------
G-------------------------------
D-------------------------------
A--2-—--------------------------
E--0--3—5~--2-3~--0-1-3-2-------

INTRO TWO:
e----------------------------------------
B----------------------------------------
G----------------------------------------
D----------------------------------------
A--2-2—2-2-2-2-2-2-----------------------
E--0-0-0-0-0-0-0-0--3—5~--2-3~--0-1-3-2—
  |------P.M------|

GUITAR TWO: PLAY FOUR TIMES.
e---------------------------------------
B---------------------------------------
G—12~~~~~-------------------------------
D----------17-19-16-17-14-15-17-16------
A---—-----------------------------------
E----—----------------------------------

GUITAR ONE: PLAY FOUR TIMES WITH GUITAR TWO
e---------------------------------------
B---------------------------------------
G—--------------------------------------
D---------------------------------------
A--2-------—----------------------------
E--0--—----17-19-16-17-14-15-17-16------

BREAK: BOTH GUITARS PLAY.
e----------------------------------------
B----------------------------------------
G----------------------------------------
D----------------------------------------
A--2-2—2-2-2-2-2-2-----------------------
E--0-0-0-0-0-0-0-0--3—5~--2-3~--0-1-3-2—
  |------P.M------|

VERSE:
e----------------------------------------
B----------------------------------------
G--2-2-2-2-2-2-2-2---5-5-5-5-5-5-5-5-----
D--2-2-2-2-2-2-2-2---5-5-5-5-5-5-5-5-----
A--0-0-0-0-0-0-0-0---3-3-3-3-3-3-3-3-----
E---------------------------------------—
  |------P.M------|  |-----P.M-----|

e----------------------------------------
B----------------------------------------
G--4-4-4-4-4-4-4-4---7-7-7-7-7-7-7-7-----
D--4-4-4-4-4-4-4-4---7-7-7-7-7-7-7-7-----
A--2-2-2-2-2-2-2-2---5-5-5-5-5-5-5-5-----
E---------------------------------------—
  |------P.M------|  |-----P.M-----|

GUITAR ONE: OVER RIFF 2
e-------------------------------
B-------------------------------
G-------------------------------
D-------------------------------
A--2-—----5------4------7-------
E--0--—---3------3------5-------

RIFF 2:
e---------------------------------------
B---------------------------------------
G---------------------------------------
D---------------------------------------
A--2-2—2-2-2-2-2-2-2--5-5-5-5-5-5-5-5---
E--0-0-0-0-0-0-0-0-0--3-3-3-3-3-3-3-3---

e---------------------------------------
B---------------------------------------
G---------------------------------------
D---------------------------------------
A--4-4-4-4-4-4-4-4--7-7-7-7-7-7-7-7-----
E--2-2-2-2-2-2-2-2--5-5-5-5-5-5-5-5-----

VERSE: BOTH GUITARS
e---------------------------------------
B---------------------------------------
G---------------------------------------
D---------------------------------------
A--2-2—2-2-2-2-2-2-2--5-5-5-5-5-5-5-5---
E--0-0-0-0-0-0-0-0-0--3-3-3-3-3-3-3-3---

e---------------------------------------
B---------------------------------------
G---------------------------------------
D---------------------------------------
A--4-4-4-4-4-4-4-4--7-7-7-7-7-7-7-7-----
E--2-2-2-2-2-2-2-2--5-5-5-5-5-5-5-5-----

CHORUS:
e-------------------------------
B-------------------------------
G-------------------------------
D-------------------------------
A--2-—5--7--4--5--2--3—-5--4----
E--0--3—-5~-2--3~-0--1--3--2----

GUITAR TWO:
e---------------------------------------
B---------------------------------------
G—--------------------------------------
D---------------------------------------
A--2-------—----------------------------
E--0--—----17-19-16-17-14-15-17-16------

BRIDGE: TEMPO INCREASE = 190 BPM FAST ROCK
This is very tricky and will take some mastering, excellent speed work for beginners!!!
e-------------------------------
B-------------------------------
G-------------------------------
D-------------------------------
A--2-—5--7--4--5--2--3—-5--4----
E--0--3—-5~-2--3~-0--1--3--2----

VERSE:
e---------------------------------------
B---------------------------------------
G---------------------------------------
D---------------------------------------
A--2-2—2-2-2-2-2-2-2--5-5-5-5-5-5-5-5---
E--0-0-0-0-0-0-0-0-0--3-3-3-3-3-3-3-3---

e---------------------------------------
B---------------------------------------
G---------------------------------------
D---------------------------------------
A--4-4-4-4-4-4-4-4--7-7-7-7-7-7-7-7-----
E--2-2-2-2-2-2-2-2--5-5-5-5-5-5-5-5-----

CHORUS:
e-------------------------------
B-------------------------------
G-------------------------------
D-------------------------------
A--2-—5--7--4--5--2--3—-5--4----
E--0--3—-5~-2--3~-0--1--3--2----

GUITAR TWO:
e---------------------------------------
B---------------------------------------
G—--------------------------------------
D---------------------------------------
A--2-------—----------------------------
E--0--—----17-19-16-17-14-15-17-16------

BRIDGE:
e-------------------------------
B-------------------------------
G-------------------------------
D-------------------------------
A--2-—5--7--4--5--2--3—-5--4----
E--0--3—-5~-2--3~-0--1--3--2----

TO FADE.
            
Hard to play? Try these video lessons and learn fast. | Correct




comments powered by Disqus
↑ Back to top | Tablatures and chords are parodies/interpretations of the original songs. You may use it for private study, scholarship, research or language learning purposes only