>
 >
Mein Kampf

Mein Kampf Guitar Tabs

Bracken Cell - Mein Kampf chords, tabs, tablatures, lyrics

Guitar lessons | Add/correct | Request | Top 50 tabs Artists:  A B C D E F G H I J K L M N O P Q R S T U V W X Y Z 0-9

Mein Kampf Guitar Tabs – Bracken Cell

CD, Sheet music, Poster

Do you like Mein Kampf? Share with your friends now
Tabs
* = Palm Mute
. = Stop / Rest 
** = Pinched Harmonic

Capo 2nd Fret.
Tempo = Fast Rock = 190 Thrash Metal Scale Riff.

Intro:
e------------------------------------------------
B------------------------------------------------
G------------------------------------------------
D--------------------------2--------------- -----
A---78---5-6---7-8---5-6--0----7-8---5-6---7-8--	
E-0-----0-----0-----0---------0-----0-----0------
  .	   .     .     .         .     .     .
e----------------
B----------------
G----------------
D---------------- 
A--5-42-4-------	
E--3-2-0-2-------

Intro 2:
e--------------------------------------
B--------------------------------------
G--------------------------------------
D-------------------------------------- 
A--2----2-----3-----5-----7h8p7-------	
E--0-0-0---0-0---0-0---0-0-------------
     . .   . .   . .   . . 
e--------------------------------------
B--------------------------------------
G--------------------------------------
D-------------------------------------- 
A--2----2-----3-----5-----3**---------	
E--0-0-0---0-0---0-0---0-0-------------
     . .   . .   . .   . . 
Pre Verse:
e--------------------------------------
B--------------------------------------
G--------------------------------------
D-------------------------------------- 
A------------------5--4--2--4---------	
E--0-0-0-0-0-0-0-0--3--2--0--2---0.----
   . . . . . . . .
e--------------------------------------
B--------------------------------------
G--------------------------------------
D-------------------------------------- 
A-----7------8------5------6----------	
E-0-5----0-5-----0-5---0-5-------------
Verse:
e--------------------------------------
B--------------------------------------
G--------------------------------------
D-------------------------------------- 
A--2-22-2-2-2-2-2-2-2-2-2-2-2-2-2-2---	
E--0-0-0-0-0-0-0-0-0-0-0-0-0-0-0-0-0---

e--------------------------------------
B--------------------------------------
G--------------------------------------
D-------------------------------------- 
A--4-44-4-4-4-4-4-4-4-4-4-4-4-4-4-4---	
E--2-2-2-2-2-2-2-2-2-2-2-2-2-2-2-2-2---

e--------------------------------------
B--------------------------------------
G--------------------------------------
D-------------------------------------- 
A--5-55-5-5-5-5-5-5-5-5-5-5-5-5-5-5---	
E--3-3-3-3-3-3-3-3-3-3-3-3-3-3-3-3-3---

e--------------------------------------
B--------------------------------------
G--------------------------------------
D-------------------------------------- 
A--4-44-4-4-4-4-4-2-2-2-2-4-4-4-4-4---	
E--2-2-2-2-2-2-2-2-0-0-0-0-2-2-2-2-2---

Chorus:
e--------------------------------------
B--------------------------------------
G--------------------------------------
D-------------------------------------- 
A--2-----5-----2--4--2--3--4-----------	
E--0--0--3--0--0--2--0--1--2-----------

e--------------------------------------
B--------------------------------------
G-----------------------4--5--4--------
D-----------------------2--3--2-------- 
A--2-----5-----2--4--2-----------------	
E--0--0--3--0--0--2--0-----------------

Solo bridge: Heavy Palm Muting.
e--------------------------------------
B--------------------------------------
G--------------------------------------
D-------------------------------------- 
A--2--5--6--5---2--3--4--3-------------
E--0--3--4--3---0--1--2--1-------------





Comments


Popular Bracken Cell tabs & chords
Death Day Tabs
Friends With My Willy - Deranged S. Proj Tabs
Justice For My Soul Tabs
Master Of Destruction Tabs
Night Of The Vampires Tabs
Speed Metal Tabs
The Salmon Song Tabs
Thrash Metal Tabs
Trench Foot Tabs
War Game Tabs


Song lyrics



↑ Back to top | Tablatures and chords are parodies/interpretations of the original songs. You may use it for private study, scholarship, research or language learning purposes only
© 2014 AZChords.com Contact us | Privacy policy | DMCA | Add/correct tabs | Request tabs | Top 50 tabs