» » »

Bracken Cell, Mein Kampf Tabs (ver.1)

Artists:  A B C D E F G H I J K L M N O P Q R S T U V W X Y Z # 

Mein Kampf Tabs (ver.1)

Bracken Cell Tabs
Rating:
0/5 (0 votes)
Mein Kampf lessons Tabs too difficult? Try these video lessons and learn fast
                * = Palm Mute
. = Stop / Rest 
** = Pinched Harmonic

Capo 2nd Fret.
Tempo = Fast Rock = 190 Thrash Metal Scale Riff.

Intro:
e------------------------------------------------
B------------------------------------------------
G------------------------------------------------
D--------------------------2--------------- -----
A---7—8---5-6---7-8---5-6--0----7-8---5-6---7-8--	
E-0-----0-----0-----0---------0-----0-----0------
  .	   .     .     .         .     .     .
e----------------
B----------------
G----------------
D---------------- 
A--5-4—2-4-------	
E--3-2-0-2-------

Intro 2:
e--------------------------------------
B--------------------------------------
G--------------------------------------
D-------------------------------------- 
A--2—----2-----3-----5-----7h8p7-------	
E--0-0-0---0-0---0-0---0-0-------------
     . .   . .   . .   . . 
e--------------------------------------
B--------------------------------------
G--------------------------------------
D-------------------------------------- 
A--2—----2-----3-----5-----3**---------	
E--0-0-0---0-0---0-0---0-0-------------
     . .   . .   . .   . . 
Pre Verse:
e--------------------------------------
B--------------------------------------
G--------------------------------------
D-------------------------------------- 
A---—---------------5--4--2--4---------	
E--0-0-0-0-0-0-0-0--3--2--0--2---0.----
   . . . . . . . .
e--------------------------------------
B--------------------------------------
G--------------------------------------
D-------------------------------------- 
A---—--7------8------5------6----------	
E-0-5----0-5-----0-5---0-5-------------
Verse:
e--------------------------------------
B--------------------------------------
G--------------------------------------
D-------------------------------------- 
A--2-2—2-2-2-2-2-2-2-2-2-2-2-2-2-2-2---	
E--0-0-0-0-0-0-0-0-0-0-0-0-0-0-0-0-0---

e--------------------------------------
B--------------------------------------
G--------------------------------------
D-------------------------------------- 
A--4-4—4-4-4-4-4-4-4-4-4-4-4-4-4-4-4---	
E--2-2-2-2-2-2-2-2-2-2-2-2-2-2-2-2-2---

e--------------------------------------
B--------------------------------------
G--------------------------------------
D-------------------------------------- 
A--5-5—5-5-5-5-5-5-5-5-5-5-5-5-5-5-5---	
E--3-3-3-3-3-3-3-3-3-3-3-3-3-3-3-3-3---

e--------------------------------------
B--------------------------------------
G--------------------------------------
D-------------------------------------- 
A--4-4—4-4-4-4-4-4-2-2-2-2-4-4-4-4-4---	
E--2-2-2-2-2-2-2-2-0-0-0-0-2-2-2-2-2---

Chorus:
e--------------------------------------
B--------------------------------------
G--------------------------------------
D-------------------------------------- 
A--2-----5-----2--4--2--3--4-----------	
E--0--0--3--0--0--2--0--1--2-----------

e--------------------------------------
B--------------------------------------
G-----------------------4--5--4--------
D-----------------------2--3--2-------- 
A--2-----5-----2--4--2-----------------	
E--0--0--3--0--0--2--0-----------------

Solo bridge: Heavy Palm Muting.
e--------------------------------------
B--------------------------------------
G--------------------------------------
D-------------------------------------- 
A--2--5--6--5---2--3--4--3-------------
E--0--3--4--3---0--1--2--1-------------
            
Submit corrections

comments powered by Disqus
↑ Back to top | Bracken Cell Tabs for Mein Kampf. Lyrics for acoustic guitar and electric guitar. Tablatures and chords are parodies/interpretations of the original songs. You may use it for private study, scholarship, research or language learning purposes only