» » »

Bracken Cell, Master Of Destruction Tabs (ver.1)

Artists:  A B C D E F G H I J K L M N O P Q R S T U V W X Y Z # 

Master Of Destruction Tabs (ver.1)

Bracken Cell Tabs
 Rating:
4/5 (4 votes)
Master Of Destruction lessons Tabs too difficult? Try these video lessons and learn fast
                C G Ab G F G Ab G = Keys For Piano.
E |---------------------------------------------------|
B |---------------------------------------------------|
G |---------------------------------------------------|
D |-----5-6-5--3-5-6-5------5-6-5--3-5-6-5------------|
A |--3-------------------3----------------------------|
E |---------------------------------------------------|

E |---------------------------------------------------|
B |---------------------------------------------------|
G |---------------------------------------------------|
D |-----5-6-5--3-5-6-5------5-6-5---3--5--6--5--------|
A |--3-------------------3----------3--5--6--5--------|
E |---------------------------------1--3--4--3--------|


Pre Verse:
Power chord notes to riff. C G Ab G F G Ab G. 
E |---------------------------------|
B |---------------------------------|
G |---------------------------------|
D |------------------5-s-6---3-s-5--|
A |------------------5-s-6---3-s-5--|
E |-0-0-0-0-0-0-0-0—-3-s-4-0-1-s-3--|

E |---------------------------------|
B |---------------------------------|
G |---------------------------------|
D |------------------5-s-6---3-s-5--|
A |------------------5-s-6---3-s-5--|
E |-0-0-0-0-0-0-0-0—-3-s-4-0-1-s-3--| Repeat 4 Times.

E |---------------------------------|
B |---------------------------------|
G |---------------------------------|
D |------------------5-s-6---3-s-5--|
A |-2-2-2-2-2-2-2-2--5-s-6---3-s-5--|
E |-0-0-0-0-0-0-0-0—-3-s-4-0-1-s-3--| Repeat 2 Times

E |---------------------------------|
B |---------------------------------|
G |---------------------------------|
D |-8-8-8-8-8-8-8-8--5-s-6---3-s-5--|
A |-8-8-8-8-8-8-8-8--5-s-6---3-s-5--|
E |-6-6-6-6-6-6-6-6—-3-s-4-0-1-s-3--|

E |---------------------|
B |---------------------|
G |---------------------|
D |--5--6--5--3---------|
A |--5--6--5--3---------|
E |--3--4--3--1---------|

E |---------------------|
B |---------------------|
G |---------------------|
D |------------------3--|
A |------------------3--|
E |-0-0-0-0-0-0-0-0—-1--| Keep Repeating.

Verse:
E |-------------------------------------------|
B |-------------------------------------------|
G |-------------------------------------------|
D |------------------3------4-4-4-4-3-3-3-----|
A |------------------3—X3---4-4-4-4-3-3-3-----|
E |-0-0-0-0-0-0-0-0—-1------2-2-2-2-1-1-1-----|
            
Submit corrections

comments powered by Disqus
↑ Back to top | Bracken Cell Tabs for Master Of Destruction. Lyrics for acoustic guitar and electric guitar. Tablatures and chords are parodies/interpretations of the original songs. You may use it for private study, scholarship, research or language learning purposes only