>
 >
Justice For My Soul

Justice For My Soul Guitar Tabs

Bracken Cell - Justice For My Soul chords, tabs, tablatures, lyrics

Guitar lessons | Add/correct | Request | Top 50 tabs Artists:  A B C D E F G H I J K L M N O P Q R S T U V W X Y Z 0-9

Justice For My Soul Guitar Tabs – Bracken Cell

CD, Sheet music, Poster

Do you like Justice For My Soul? Share with your friends now
Tabs
e-------------------------------------------------------
B-------------------------------------------------------
G-------------------------------------------------------
D-------------------------------------------------------
A--7-65~--7-6-5~--7-6-5~--7-6-5~-----------------------
E-------------------------------------------------------

e-------------------------------------------------------
B-------------------------------------------------------
G-------------------------------------------------------
D-------------------------------------------------------
A--2------7-6-5---2-----7-6-5---2-----7-6-5---5-----4-
E--0-0-0-----------0-0-0---------0-0-0---------3-0-0--2-

Ending of Intro:
e-------------------------------------------------------
B-------------------------------------------------------
G-------------------------------------------------------
D-------------------------------------------------------
A--5------4---5------4---5-----4---------2--------------
E--3-0-0--2---3-0-0--2---3-0-0-2---0-2-3---3-2----------

Verse Begin.
e-------------------------------------------------------
B-------------------------------------------------------
G-------------------------------------------------------
D-------------------------------------------------------
A------------------------------------------------------
E--0-0-0-0-0-0-0-0-0-0-0-0-0-0-0-0-0-0-0-0-0-0-0-0-0-0-0

e-------------------------------------------------------
B-------------------------------------------------------
G-------------------------------------------------------
D-------------------------------------------------7-6-5-
A--2-----7-6-5--2------7-6-5--2-----7-6-5--7-6-5-------
E--0-0-0---------0-0-0---------0-0-0--------------------

e-------------------------------------------------------
B-------------------------------------------------------
G-------------------------------------------------------
D----------------------------------------------9-8-7----
A-2----7-6-5--2-----7-6-5--2-----7-6-5--9-8-7----------
E-0-0-0--------0-0-0--------0-0-0-----------------------

e-------------------------------------------------------
B-------------------------------------------------------
G-------------------------------------------------------
D-------------------------------------------------------
A-----------------5------4------------------5-----8----
E-0-0-0-0-0-0-0-0--3--0-0-2--0-0-0-0-0-0-0-0-3-0-0-6----

e-------------------------------------------------------------
B-------------------------------------------------------------
G-------------------------------------------------------------
D-------------------------------------------------------------
A-----------------5-----4-------------------------2----------
E-0-0-0-0-0-0-0-0--3-0-0-2--0-0-0-0-0-0-0-0--0-2-3---3-2-0----

Repeat. Then play riff below before lyrics kick in.

e---------------------------------------------------------
B---------------------------------------------------------
G---------------------------------------------------------
D---------------------------------------------------------
A-------2-------------2-------------2-------------2------
E--0-2-3---3-2-0-0-2-3---3-2-0-0-2-3---3-2-0-0-2-3----3**-

Verse:
e-------------------------------------------------------
B-------------------------------------------------------
G-------------------------------------------------------
D-------------------------------------------------------
A-----------------5------4------------------5-----8----
E-0-0-0-0-0-0-0-0--3--0-0-2--0-0-0-0-0-0-0-0-3-0-0-6----

e-------------------------------------------------------------
B-------------------------------------------------------------
G-------------------------------------------------------------
D-------------------------------------------------------------
A-----------------5-----4-------------------------2----------
E-0-0-0-0-0-0-0-0--3-0-0-2--0-0-0-0-0-0-0-0--0-2-3---3-2-0----

Solo:
e---------------------------------------------------------
B---------------------------------------------------------
G---------------------15-14-12-15-14-12-------------------
D---15-14-12-15-14-12-------------------15-14-12-15-14-12-
A--------------------------------------------------------
E---------------------------------------------------------

e-------------------------------------------------------
B-------------------------------------------------------
G--------16-15>-----------------------------------------
D--15-14------------------------------------------------
A------------------------------------------------------
E-------------------------------------------------------

e------------------------------------------------------------
B------------------------------------------------------------
G-----------15-14-12----------15-14-12----------15-14-1214>>
D--15-14-12----------15-14-12----------15-14-12--------------
A-----------------------------------------------------------
E------------------------------------------------------------

Repeat then break into fast alternate picking for below.
e-------------------------------------------------------
B-------------------------------------------------------
G--18-17-15-Repeat---19-18-16-Repeat.-------------------
D-------------------------------------------------------
A------------------------------------------------------
E-------------------------------------------------------

Break Down:
e-------------------------------------------------------
B-------------------------------------------------------
G-------------------------------------------------------
D-------------------------------------------------------
A--2-----7-6-5--2-----5--2-----7-6-5--2-----4----------
E--0-0-0---------0-0-0-3--0-0-0--------0-0-0-2----------

e------------------------------------------------------------
B------------------------------------------------------------
G------------------------------------------------------------
D-------------------------------------------------------7**--
A--2-----7-6-5--2-----8--2-----7-6-5--2-----7-6-5-7-6-5-----
E--0-0-0---------0-0-0-6--0-0-0--------0-0-0-----------------





Comments


Popular Bracken Cell tabs & chords
Death Day Tabs
Fear...Will Be Heard Tabs
Friends With My Willy - Deranged S. Proj Tabs
Mein Kampf Tabs
Night Of The Vampires Tabs
Speed Metal Tabs
The Virtue Of Death Tabs
Trench Foot Tabs
War Game Tabs
We Are The Dead Tabs


Song lyrics



↑ Back to top | Tablatures and chords are parodies/interpretations of the original songs. You may use it for private study, scholarship, research or language learning purposes only
© 2014 AZChords.com Contact us | Privacy policy | DMCA | Add/correct tabs | Request tabs | Top 50 tabs