» » »

Fear...Will Be Heard Tabs (ver.1)

Artists:  A B C D E F G H I J K L M N O P Q R S T U V W X Y Z # 

Fear...Will Be Heard Tabs (ver.1)

Bracken Cell
Rating:
0/5 (0 votes)

Hard to play? Try these video lessons and learn fast.
                Hey there, if you have stumbled onto this tab and are wondering whom Bracken Cell are then here is some info. Bracken Cell is currently a thrash metal band consisting of two guitarists, we are highly influenced by Metallica and are looking for a drummer and bassist. We are very determined and hope to go far, we are both 15 years old and live in Stoke on Trent – England. If you play drums or bass and live in our area then contact me at the following E-mail address:


Thank You.

Fear…Will Be Heard.

INTRO:
e------------------------------------------------------
B------------------------------------------------------
G------------------------------------------------------   PLAY X 3
D---4--4--4--4--------—--------------------------------
A---4--4--4--4------------2--4--5--2--3------—---------
E---2--2--2--2---2--4--5-------------------------------

e------------------------------------------------------
B------------------------------------------------------
G------------------------------------------------------   PLAY X 1
D---4--4--4--4--------—------------2--3----------------
A---4--4--4--4------------2--4--5-------------—--------
E---2--2--2--2---2--4--5-------------------------------

VERSE:
      P.M,        P.M          P. M           P.M
e-----------------------------------------------------
B-----------------------------------------------------
G-----------------------------------------------------   
D---4--4--4--4--4--4--4--4----------------------------
A---4--4--4--4--4--4--4--4-----------2--4--5--2--3---
E---2--2--2--2--2--2--2--2--2--4--5-------------------

      P.M,         P.M           P.M          P.M
e----------------------------------------------------
B----------------------------------------------------
G----------------------------------------------------   
D---4--4--4--4--4--4--4--4--------------------2--3---
A---4--4--4--4--4--4--4--4-----------2--4--5---------
E---2--2--2--2--2--2--2--2--2--4--5------------------

e-------------------------------------------------------
B-------------------------------------------------------
G-------------------------------------------------------
D---4--4-------4--4------4—-4------4--4-----------------
A---4--4-------4--4------4--4------4--4-—--------------
E---2--2-------2--2------2--2------2--2-----------------

Verse:
e-------------------------------------------------------
B-------------------------------------------------------
G-------------------------------------------5-----------
D---4-x-x-x-x-x--4-x-x-x-x-x--4-x-x-x-x-x---5-----------
A---4-x—x-x-x-x--4-x-x-x-x-x--4-x-x-x-x-x---3-----------
E---2-x-x-x-x-x--2-x-x-x-x-x--2-x-x-x-x-x---------------

e-------------------------------------------------------
B-------------------------------------------------------
G-------------------------------------------5--4--------
D---4-x-x-x-x-x--4-x-x-x-x-x--4-x-x-x-x-x---5--4--------
A---4-x—x-x-x-x--4-x-x-x-x-x--4-x-x-x-x-x---3--2--------
E---2-x-x-x-x-x--2-x-x-x-x-x--2-x-x-x-x-x---------------


GUITAR FILL:
e-------------------------------------------------------
B-------------------------------------------------------
G-------------------------------------------------------  PLAY X 3
D---------------12--14--15--12--13----------------------
A---12--14--15---------------------------—--------------
E-------------------------------------------------------

e-------------------------------------------------------
B-------------------------------------------------------
G---------------------------16--------------------------  PLAY X 1
D---------------12--14--15—-16--------------------------
A---12--14--15---------------------------—--------------
E-------------------------------------------------------

e--------------------------------------------
B-----------------15--16--17--13--14---------
G-----15--16--17-----------------------------       PLAY X 3
D--------------------------------------------
A----------------------------------—---------
E--------------------------------------------


e--------------------------------------------
B-----------------15--16--17------19~~~~~~~/-
G-----15--16--17-----------------------------       PLAY X 1
D--------------------------------------------
A----------------------------------—---------
E--------------------------------------------
            
Hard to play? Try these video lessons and learn fast. | Correct




comments powered by Disqus
↑ Back to top | Tablatures and chords are parodies/interpretations of the original songs. You may use it for private study, scholarship, research or language learning purposes only