>
 >
Death Day

Death Day Guitar Tabs

Bracken Cell - Death Day chords, tabs, tablatures, lyrics

Guitar lessons | Add/correct | Request | Top 50 tabs Artists:  A B C D E F G H I J K L M N O P Q R S T U V W X Y Z 0-9

Death Day Guitar Tabs – Bracken Cell

CD, Sheet music, Poster

Do you like Death Day? Share with your friends now
Tabs
Thrash Metal - Tempo = 200
e-----------------------------------
B-----------------------------------
G-----------------------------------
D-----------------------------------
A----8-----------------7-----6-----
E-0-0---0-0-7-0-0-6-0-0---0-0-------
  P.M     P.M    P.M    P.M    P.M

Played in Parenthesis with Riff 1:
e-------------------------------------
B-------------------------------------
G-------------------------------------
D-------------------------------------
A-----2------2------2------2--5------
E--0-0-0--0-0-0--0-0-0--0-0-0--3------
    P.M     P.M     P.M      P.M    

e-------------------------------------
B-------------------------------------
G-------------------------------------
D-------------------------------------
A-----4------4------4------4--5------
E--2-2-2--2-2-2--2-2-2--2-2-2--3------
    P.M     P.M     P.M     P.M    

e-------------------------------------
B-------------------------------------
G-------------------------------------
D-------------------------------------
A-----2------2------2------2--5------
E--0-0-0--0-0-0--0-0-0--0-0-0--3------
    P.M     P.M     P.M     P.M    

e-------------------------------------
B-------------------------------------
G-------------------------------------
D-------------------------------------
A-----7------7------7------7--9------
E--5-5-5--5-5-5--5-5-5--5-5-5--7------
    P.M     P.M     P.M     P.M    


Note:
On Verse, palm mute the second and third notes rather than the first and second as played in the Riff.

Verse:
e-------------------------------------
B-------------------------------------
G-------------------------------------
D-------------------------------------
A--2-22--4-4-4--2-2-2--4-4-4---5-----
E--0-0-0--2-2-2--0-0-0--2-2-2---3-----
      P.M     P.M     P.M      P.M    

e-------------------------------------
B-------------------------------------
G-------------------------------------
D-------------------------------------
A--2-22--4-4-4--2-2-2--4-4-4---5-----
E--0-0-0--2-2-2--0-0-0--2-2-2---3-----
      P.M     P.M     P.M      P.M    

Shred Metal Solo.
Tempo  32nd Notes.
e----------------------------------
B----------------------------------
G----------------------------------
D--12-8-9-12-8-9-11-8-9-11-8-9----- Repeat.
A---------------------------------
E----------------------------------

Solo 2:
e-----------------------------------------------
B-----------------------------------------------
G-----------------------------------------13-14-
D--12-14-15----------12-------12-14----12------- 
A----------12-14-15----14-15-------15----------
E-----------------------------------------------

e-----------------------------------------------
B-11-12---------------------------12-13-15-13---
G-------13-14-----------------------------------
D--------------12-14-15----------------- -------
A-----------------------12-14-15---------------
E-----------------------------------------------

e--12-14-15--------------------------------------
B-------------------12-13-15---------------------
G------------13-14-------------------------------
D----------------------------12-14-15------------
A--------------------------------------12-14-15--
E------------------------------------------------

e-----------------------------------------------
B-----------------------------------------------
G-----------------------------------------------
D-12-15-14-14-14-14-15-15-15-15-12-12-12-------- 
A----------------------------------------14-15-
E-----------------------------------------------

e------------------------------------------
B------------------------------------------
G------------------------------------------
D-----14-15-------------------------------- 
A--12------12-14-15-----------------------
E------------------------------------------





Comments


Popular Bracken Cell tabs & chords
Justice For My Soul Tabs
Master Of Destruction Tabs
Mein Kampf Tabs
Night Of The Vampires Tabs
The Salmon Song Tabs
The Virtue Of Death Tabs
Thrash Metal Tabs
Trench Foot Tabs
War Game Tabs
We Are The Dead Tabs


Song lyrics



↑ Back to top | Tablatures and chords are parodies/interpretations of the original songs. You may use it for private study, scholarship, research or language learning purposes only
© 2014 AZChords.com Contact us | Privacy policy | DMCA | Add/correct tabs | Request tabs | Top 50 tabs